Osker - Numbskull Chords & Tabs

 

Numbskull Chords & Tabs

Osker Chords & Tabs

Version: 1 Type: Tab 0 ratings
1 star 2 stars 3 stars 4 stars 5 stars
comments

Numbskull Tab

OSKER

Numbskull

tabbed by Daz Taylor  daztaylor84@hotmail.com

intro 
------------------------------------------------------------------------------ 
------------------------------------------------------------------------------ 
------------------------------------------------------------------------------ 
-5---------------------5------------------------------------------------------ 
-5---------------------5---------------------5-5------------------------------ 
-3---------------------3---------------------3-3------------------------------ 
x x 
verse 
------------------------------------------------------------------------------ 
------------------------------------------------------------------------------ 
------------------------------------------------------------------------------ 
-------------9-9-9-5-5-5------------------------------------------------------ 
-5-5-5-7-7-7-7-7-7-3-3-3------------------------------------------------------ 
-3-3-3-5-5-5------------------------------------------------------------------ 
[ Tab from: http://www.guitartabs.cc/tabs/o/osker/numbskull_tab.html ]
chorus 
------------------------------------------------------------------------------ 
------------------------------------------------------------------------------ 
------------------------------------------------------------------------------ 
-5-7-9-5-5-5-5-5-5-5-7-9-5-5-5-7-7-7-12------5-5-5-5-5-5-7-7-7-5-5-5-12------- 
-3-5-7-3-3-3-3-3-3-3-5-7-3-3-3-5-5-5-10------3-3-3-3-3-3-5-5-5-3-3-3-10------- 
-------------------------------------10------------------------------10------- 


------------------------------------------------------------------------------ 
------------------------------------------------------------------------------ 
------------------------------------------------------------------------------ 
-5-5-5-5-5-5-7-7-7-5-5-5------------------------------------------------------ 
-3-3-3-3-3-3-5-5-5-3-3-3------------------------------------------------------ 
------------------------------------------------------------------------------ 

bridge 
------------------------------------------------------------------------------ 
------------------------------------------------------------------------------ 
------------------------------------------------------------------------------ 
---------9-9-7-7-7-7-7-7---------9-9-7-7-7-7-7-7------------------------------ 
-5-5-5-5-7-7-5-5-5-5-5-5-5-5-5-5-7-7-5-5-5-5-5-5------------------------------ 
-3-3-3-3-----------------3-3-3-3---------------------------------------------- 

outro 
-------------------------------------------------|---------------------------- 
-------------------------------------------------|---------------------------- 
-------------------------------------------------|---------------------------- 
-------------------------5-5-5-5-5-5-7-7-7-5-5-5-|---------------------------- 
-5-5-5-5-5-5-5-5-5-5-5-5-3-3-3-3-3-3-5-5-5-3-3-3-|-5-------------------------- 
-3-3-3-3-3-3-3-3-3-3-3-3-------------------------|-3-------------------------- 
last chord of song 
Comments