Osker - Lucky Chords & Tabs

 

Lucky Chords & Tabs

Osker Chords & Tabs

Version: 1 Type: Tab 0 ratings
1 star 2 stars 3 stars 4 stars 5 stars
comments

Lucky Tab

OSKER

Lucky

tabbed by Daz Taylor  daztaylor84@hotmail.com


intro/chorus 
-------------------------|---------------------------------------------------- 
-------------------------|---------------------------------------------------- 
-------------------------|-4-------------------------------------------------- 
-4-4-4-------------------|-4-------------------------------------------------- 
-2-2-2-2-2-2-4-4-4-4-4-4-|-2-------------------------------------------------- 
-------0-0-0-2-2-2-2-2-2-|---------------------------------------------------- 
last chord of song 
verse 
------------------------------------------------------------------------------ 
------------------------------------------------------------------------------ 
------------------------------------------------------------------------------ 
-4-4-4-4-4-4------------------------------------------------------------------ 
-2-2-2-2-2-2-6-6-6-2-2-2------------------------------------------------------ 
-------------4-4-4-0-0-0------------------------------------------------------ 
[ Tab from: http://www.guitartabs.cc/tabs/o/osker/lucky_tab.html ]
pre-chorus 
------------------------------------------------------------------------------ 
------------------------------------------------------------------------------ 
------------------------------------------------------------------------------ 
-4-4-4-4-4-4-6-6-6-6-6-6-8-8-8-8-8-8-9-9-9-9-9-9------------------------------ 
-2-2-2-2-2-2-4-4-4-4-4-4-6-6-6-6-6-6-7-7-7-7-7-7------------------------------ 
------------------------------------------------------------------------------ 

bridge 
------------------------------------------------------------------------------ 
------------------------------------------------------------------------------ 
------------------------------------------------------------------------------ 
-----------------4-4-4-4-4-4-4-4-9-9-9-9-9-9-9-9-9-9-9-9-9-9-9-9-------------- 
-6-6-6-6-6-6-6-6-2-2-2-2-2-2-2-2-7-7-7-7-7-7-7-7-7-7-7-7-7-7-7-7-------------- 
-4-4-4-4-4-4-4-4-------------------------------------------------------------- 
x x x x x x x x x x x x x x x x x x x x x x x x x 
more bridge 
------------------------------------------------------------------------------ 
------------------------------------------------------------------------------ 
------------------------------------------------------------------------------ 
-------4---------------------------------------------------------------------- 
-6-6-6---6-4-6-4-4-4-2-2-2---------------------------------------------------- 
-4-4-----------2-2-2-0-0-0---------------------------------------------------- 
Comments