Osker - Fuck Me Chords & Tabs

 

Fuck Me Chords & Tabs

Osker Chords & Tabs

Version: 1 Type: Tab 0 ratings
1 star 2 stars 3 stars 4 stars 5 stars
comments

Fuck Me Tab

OSKER

FUCK ME!!!!!       :)

tabbed by Daz Taylor  daztaylor84@hotmail.com

verse 
------------------------------------------------------------------------------ 
------------------------------------------------------------------------------ 
------------------------------------------------------------------------------ 
-------4-4-4-5-5-5-7-7-7------------------------------------------------------ 
-5-5-5-2-2-2-3-3-3-5-5-5------------------------------------------------------ 
-3-3-3------------------------------------------------------------------------ 
[ Tab from: http://www.guitartabs.cc/tabs/o/osker/fuck_me_tab.html ]
chorus 
------------------------------------------------------------------------------ 
------------------------------------------------------------------------------ 
------------------------------------------------------------------------------ 
-5-5-5-5-5-5-------------5-5-5-5-5-5-------------5-5-5-5-5-5------------------ 
-3-3-3-3-3-3-5-5-5-5-5-5-3-3-3-3-3-3-5-5-5-5-5-5-3-3-3-3-3-3-5-5-5-5-5-5------ 
-------------3-3-3-3-3-3-------------3-3-3-3-3-3-------------3-3-3-3-3-3------ 


-------------------------|---------------------------------------------------- 
-------------------------|---------------------------------------------------- 
-------------------------|---------------------------------------------------- 
-5-5-5-5-5-5-7-7-7-7-7-7-|---------------------------------------------------- 
-3-3-3-3-3-3-5-5-5-5-5-5-|-5-------------------------------------------------- 
-------------------------|-3-------------------------------------------------- 
last time through 
bridge 
------------------------------------------------------------------------------ 
------------------------------------------------------------------------------ 
-12-------11-9-6/7----12-12-11-12-12-11-12-12--11-9-7-5-7-9-7-5-7-9-7-5-7-7-7- 
------------------------------------------------------------------------------ 
------------------------------------------------------------------------------ 
------------------------------------------------------------------------------ 
Comments