Osker - Dying Chords & Tabs

 

Dying Chords & Tabs

Osker Chords & Tabs

Version: 1 Type: Tab 0 ratings
1 star 2 stars 3 stars 4 stars 5 stars
comments

Dying Tab

OSKER
Dying

tabbed by Daz Taylor  daztaylor84@hotmail.com

intro 
-------------------------||----------|---------------------------------------- 
-------------------------||----------|---------------------------------------- 
-------------------------||9-9-11-11-|---------------------------------------- 
-9-9---------------------||9-9--9--9-|---------------------------------------- 
-7-7-9-7-7-7-7-7-9-9-9-9-||----------|9-9-9-9--------------------------------- 
-----7-5-5-5-5-5-7-7-7-7-||----------|7-7-7-7--------------------------------- 
last time through 
verse 
-------------------------------------||------------|-------------------------- 
-------------------------------------||------------|-------------------------- 
-------------------------------------||------------|-------------------------- 
-------------------------------------||------------|-------------------------- 
-4-4-4-4-4-4-7-7-7-7-7-7-2-2-2-2-2-2-||2-2-2-2-2-2-|9-9-9-11-11-11------------ 
-2-2-2-2-2-2-5-5-5-5-5-5-0-0-0-0-0-0-||0-0-0-0-0-0-|7-7-7--9--9--9------------ 
last time through 
[ Tab from: http://www.guitartabs.cc/tabs/o/osker/dying_tab.html ]
-------------------------||------------------------------|-------------------- 
-------------------------||------------------------------|-------------------- 
-------------------------||------------------------------|-------------------- 
-------------------------||------------------------------|-------------------- 
-7-7-7-7-7-7-7-7-7-7-7-7-||11-11-11-11-11-11-9-9-9-9-9-9-|9-999999999999999--- 
-5-5-5-5-5-5-5-5-5-5-5-5-||-9--9--9--9--9--9-7-7-7-7-7-7-|7-777777777777777--- 
xxxxxxxxxxxxxxx 
chorus 
------------------------------------------------------------------------------ 
------------------------------------------------------------------------------ 
------------------------------------------------------------------------------ 
-9-9-9-9-9-9-9-9-11-11-11-11-11-11-11-11-------------------------------------- 
-7-7-7-7-7-7-7-7--9--9--9--9--9--9--9--9-11-11-11-11-11-11-11-11-7-7-7-7-7-7-- 
------------------------------------------9--9--9--9--9--9--9--9-5-5-5-5-5-5-- 


-----|------------------------------------------------------------------------ 
-----|------------------------------------------------------------------------ 
-----|------------------------------------------------------------------------ 
-----|9----------------------------------------------------------------------- 
-7-7-|7----------------------------------------------------------------------- 
-5-5-|------------------------------------------------------------------------ 
last chord of song 

bridge 
------------------------------------------------------------------------------ 
-----------------------------5-4-5-5-4-5/7---/9---5--------------------------- 
------------------------------------------------------------------------------ 
------------------------------------------------------------------------------ 
-4-----------7-----------2---------------------------------------------------- 
-2-----------5-----------0---------------------------------------------------- 
Comments