Osker - Anchor Chords & Tabs

 

Anchor Chords & Tabs

Osker Chords & Tabs

Version: 1 Type: Tab 0 ratings
1 star 2 stars 3 stars 4 stars 5 stars
comments

Anchor Tab

OSKER
Anchor

tabbed by Daz Taylor  daztaylor84@hotmail.com

e|---------------------------------------------------------------------------| 
B|---------------------------------------------------------------------------| 
G|--9-------7-------5--------------------------------------------------------| 
D|--7-(3x)--7-(2x)--5-(2x)---------------------------------------------------| 
A|--5-------5-------3--------------------------------------------------------| 
E|---------------------------------------------------------------------------| 

INTRO - LEAD - 4X 
e|---------------------------------------------------------------------------| 
B|---------------------------------------------------------------------------| 
G|--9-(2x)--7-(2x)--5-(3x)---------------------------------------------------| 
D|---------------------------------------------------------------------------| 
A|---------------------------------------------------------------------------| 
E|---------------------------------------------------------------------------| 

VERSE - 2X 
e|----------2-------2-------5------------------------------------------------| 
B|----------2-------2-------5------------------------------------------------| 
G|--9-------3-------4-------7------------------------------------------------| 
D|--7-(8x)--4-(8x)--4-(8x)--7-(8x)-------------------------------------------| 
A|--5-------4-------2-------5------------------------------------------------| 
E|----------2----------------------------------------------------------------| 

PRE-CHORUS 
e|----------3-------2-------5------------------------------------------------| 
B|----------3-------2-------5------------------------------------------------| 
G|--9-------4-------4-------7------------------------------------------------| 
D|--7-(8x)--5-(8x)--4-(8x)--7-(8x)-------------------------------------------| 
A|--5-------5-------2-------5------------------------------------------------| 
E|----------3----------------------------------------------------------------| 
[ Tab from: http://www.guitartabs.cc/tabs/o/osker/anchor_tab.html ]
CHORUS - RHYTHM - 2X 
e|--7------5-------5-------4-------5-----------------------------------------| 
B|--9------7-------5-------6-------7-----------------------------------------| 
G|--9-(1x)-7-(4x)--5-(8x)--6-(2x)--7-(2x)------------------------------------| 
D|--7------5-------3-------4-------5-----------------------------------------| 
A|---------------------------------------------------------------------------| 
E|---------------------------------------------------------------------------| 

CHORUS - LEAD 
e|---------------------------------------------------------------------------| 
B|---------------------------------------------------------------------------| 
G|--88-6-4-6-4-8-44-6-8-6---88-6-4-6-4-8-44-6-8-4-6-8-6-8-9------------------| 
D|---------------------------------------------------------------------------| 
A|---------------------------------------------------------------------------| 
E|---------------------------------------------------------------------------| 

BRIDGE - CLEAN ELECTRIC GUITAR - 
e|---------------------------------------------------------------------------| 
B|---------------------------------------------------------------------------| 
G|----------------------6-4--------------------------------------------------| 
D|--0-2-------0-2-----------0-2--------------2h4p2h4p2h4-0--0-2-------0-2----| 
A|--------3-2-------2-3------------3-2---2-3----------------------3-2--------| 
E|------3---------3--------------3-----3------------------------3---------3--| 

MORE BRIDGE SINGING DURING BRIDGE - 4x 
e|-----------------------------------------------|-3-------5-----------------| 
B|-----------------------------------------------|-3-------5-----------------| 
G|-----------------------------4h6p4h6p4---------|-5-------7-------9---------| 
D|------4--0-2-------0-2-----------------5-------|-5-(1x)--7-(1x)--7-(1x)----| 
A|--2-3----------3-2-------2-3-----------3-(1x)--|-3-------5-------5---------| 
E|-------------3---------3-----------------------|---------------------------| 

AFTER BRIDGE - "Carvings that read "Idle Will Kill" 
e|---------------------------------------------------------------------------| 
B|---------------------------------------------------------------------------| 
G|-9-------------------------------------------------------------------------| 
D|-7-(5x p.m.)---------------------------------------------------------------| 
A|-5-------------------------------------------------------------------------| 
E|---------------------------------------------------------------------------| 
Comments