Osiris - Sky Chords & Tabs

 

Sky Chords & Tabs

Osiris Chords & Tabs

Version: 1 Type: Bass Tab 0 ratings
1 star 2 stars 3 stars 4 stars 5 stars
comments

Sky Bass Tab

----------------------------------------------------------------------------
			     Sky - Osiris
----------------------------------------------------------------------------

Tabbed By: OsiriS	
E-mail: osirisbass@hotmail.com

Tuning: EADG

Comments: Let all the notes on the G-string ring through the open D's, and in Verse 1
slide up from 10 to 12 after the open note... let the last note ring.

Verse 1:

G|-7--9--10--9--7---|-7--9--10---12--10--9--7--
D|--0---0---0--0--0-|--0---0---0----0---0--0-0-
A|------------------|--------------------------
E|------------------|--------------------------

Verse 2:
[ Tab from: http://www.guitartabs.cc/tabs/o/osiris/sky_btab.html ]
G|-7---7---9---9---10---10---12---12---|-10---9---7-------
D|---0---0---0---0----0----0----0----0-|----0---0---0-----
A|-------------------------------------|------------------
E|-------------------------------------|------------------

Verse 3:

G|-7---|-10---9---7-----|    -10---9---12---10---9--
D|---0-|----0---0---0---|(3x)----0---0----0----0----
A|-----|----------------|    -----------------------
E|-----|----------------|    -----------------------

(Verse 1:) (1x)

(Verse 3:) (1x)

Verse 4:

G|-7---10---9---12---|-10---9---12---|    -10---9---7---------------------
D|---0----0---0----0-|----0---0----0-|(3x)----0---0-----------------------
A|-------------------|---------------|    --------------------------------
E|-------------------|---------------|    --------------------------------
Comments