Oscar Lopez - Classical Soul Chords & Tabs

 

Classical Soul Chords & Tabs

Oscar Lopez Chords & Tabs

Version: 1 Type: Tab 0 ratings
1 star 2 stars 3 stars 4 stars 5 stars
comments

Classical Soul Tab

Classical Soul                                  


Acoustic Guitar (Capo 3)
                                                                            
E||-----------|--------0-------0-------0-------0-|------0-------0----------|
B||-----------|------1-------1-------1-------1---|----1---1---1------------|
G||-----------|----4-------4-------4-------4-----|--4-------4--------------|
D||-----------|--2-------2-------2-------2-------|-------------------------|
A||--0--------|----------------------------------|-------------------------|
E||-----------|----------------------------------|-------------------------|


                                                                      
-----------|--------0-------0-------0-------0-|------0---------------|
-----------|------1-------1-------1-------1---|----1---1-------------|
-----------|----4-------4-------4-------4-----|--4-------------------|
-----------|--2-------2-------2-------2-------|----------------------|
-----------|----------------------------------|----------------------|
--3--------|----------------------------------|----------------------|


                                                                            
--------3----1-3-1-0-------|---------------------|--------5-----4---4------|
------1--------------3-----|------1----0----1----|-----------3----3--------|
----2----------------2-----|---------------------|-----4-------------------|
--3------------------3-----|---------------------|-------------------------|
---------------------------|---------------------|-------------------------|
---------------------------|---------------------|--0----------------------|


                                                        
---------8------------|--------7~-----------|----------|
--3/6-----------------|-----6---------------|----------|
------7---------------|--7------------------|----------|
----------------------|---------------------|----------|
----------------------|---------------------|----------|
----------------------|---------------------|----------|


                                                        3x
|--------------------------|----------------------------||
|---1--------0-------------|--3--------1-3-1--0---------||
|*--2--2----------2--------|-----2---------------2-----*||
|*--------2----------2-----|--------2---------------2--*||
|---0-------------------0--|----------------------------||
|--------------------------|----------------------------||


                                                       
---0--------0--------------|--------------------------|
---------------3-----3--1--|--------1-----0-----0--1--|
*--------2--------2--------|-----------2-----2--------|
*-----2--------------------|-----2--------------------|
---0--------0--------0-----|--0-----------------------|
---------------------------|--------------------------|


                                                                                
--0--------0--------------|-----------0--0----------|--1--------3--0--1--------|
--------1-----3-----3--1--|--------1--1--1----1-----|--------3--------------3--|
-----2-----------2--------|-----2----------------2--|-----2--------------2-----|
--3--------3--------------|--3--------3--3----------|--0--------0--------0-----|
--------------------------|-------------------------|--------------------------|
--------------------------|-------------------------|--------------------------|


                                                                                
--------------------------|--1--------0--------------|-----------0----0-------||
--------3--1--0-----0--1--|--3-----3-----3--1-----0--|-----------0----0-------||
-----2-----------2--------|-----2--------------2-----|--------1--1----1------*||
--3--------3--------3-----|--------------------------|-----2-----------------*||
--------------------------|--------------------------|------------------------||
--------------------------|--0--------0--------0-----|--0-----0--0----0-------||


                                                                                
--0--------0--0-----------|--0------0--2----4----||---8--------8--7-----7------|
--3--------------3--------|--0-------------------||------------------------10--|
--------2--------------2--|----------------------||*--------9--------9---------|
-----2--------------2-----|----------------------||*-----7---------------------|
--------------------------|----------------------||---0------------------------|
--0-----------------------|--0-------------------||----------------------------|

[ Tab from: http://www.guitartabs.cc/tabs/o/oscar_lopez/classical_soul_tab.html ]
                                                                               
--------------------------|--8--------8--7-----------|------------------------|
-----------10-------------|--------6-----------5--6--|---------6--5-----5--6--|
--------9--------9--------|-----7-----------7--------|----7----------7--------|
-----7--------------7-----|--0-----------------------|------------------------|
--0--------------------0--|-----------------------8--|------------------------|
--------------------------|--------------------------|------------------------|


                                                      
-------7-------------------|-------------------------|
----------10-----10--------|--9------6-8-6--5--6--8--|
---------------------9-----|-------------------------|
------------------------7--|-------------------------|
--7-----------7------------|-------------------------|
---------------------------|-------------------------|


                                                       
--------0--------0--------|--------0-----------------||
--------0--------0--------|--------0----------0------||
--------------------------|----------------2-----2--*||
-----2--------2-----------|-----0-------------------*||
--0--------3--------2--0--|--------------------------||
--------------------------|--4--------0--------------||


                                                       
---0--------0--------------|--------------------------|
---------------3-----3--1--|--------1-----0-----0--1--|
*--------2--------2--------|-----------2-----2--------|
*-----2--------------------|-----2--------------------|
---0--------0--------0-----|--0-----------------------|
---------------------------|--------------------------|


                                                                                
--0--------0--------------|-----------0--0----------|--1--------3--0--1--------|
--------1-----3-----3--1--|--------1--1--1----1-----|--------3--------------3--|
-----2-----------2--------|-----2----------------2--|-----2--------------2-----|
--3--------3--------------|--3--------3--3----------|--0--------0--------0-----|
--------------------------|-------------------------|--------------------------|
--------------------------|-------------------------|--------------------------|


                                                                                
--------------------------|--1--------0--------------|-----------0----0-------||
--------3--1--0-----0--1--|--3-----3-----3--1-----0--|-----------0----0-------||
-----2-----------2--------|-----2--------------2-----|--------1--1----1------*||
--3--------3--------3-----|--------------------------|-----2-----------------*||
--------------------------|--------------------------|------------------------||
--------------------------|--0--------0--------0-----|--0-----0--0----0-------||


                                                                                
--0--------0--0-----------|--0------0--2----4----||---8--------8--7-----7------|
--3--------------3--------|--0-------------------||------------------------10--|
--------2--------------2--|----------------------||*--------9--------9---------|
-----2--------------2-----|----------------------||*-----7---------------------|
--------------------------|----------------------||---0------------------------|
--0-----------------------|--0-------------------||----------------------------|


                                                                               
--------------------------|--8--------8--7-----------|------------------------|
-----------10-------------|--------6-----------5--6--|---------6--5-----5--6--|
--------9--------9--------|-----7-----------7--------|----7----------7--------|
-----7--------------7-----|--0-----------------------|------------------------|
--0--------------------0--|-----------------------8--|------------------------|
--------------------------|--------------------------|------------------------|


                                                      
-------7-------------------|-------------------------|
----------10-----10--------|--9------6-8-6--5--6--8--|
---------------------9-----|-------------------------|
------------------------7--|-------------------------|
--7-----------7------------|-------------------------|
---------------------------|-------------------------|


                                                             
--------0--------0--------|--------0-----------------||----||
--------0--------0--------|--------0----------0------||----||
--------------------------|----------------2-----2--*||----||
-----2--------2-----------|-----0-------------------*||----||
--0--------3--------2--0--|--------------------------||----||
--------------------------|--4--------0--------------||----||
Comments