Osbourne Ozzy - Whos Fooling Who Chords & Tabs

 

Whos Fooling Who Chords & Tabs

Osbourne Ozzy Chords & Tabs

Version: 1 Type: Tab 0 ratings
1 star 2 stars 3 stars 4 stars 5 stars
comments

Whos Fooling Who Tab

Who's Fooling Who
Ozzy Osbourne/Tony Iommi (Fine, I'll just say it's Black Sabbath)
Tabbed by Tommy

Legend:   Hammer-On - h
          Pull-Off  - p
          Palm-Mute - ^

This is tuned down 2 1/2 steps (That's right, 2 1/2, no typo).

Use heavy distortion.

||--------------------------------------------------||
||--------------------------------------------------||
||-----------9------------------9-------------------||
||---2---8---9---9---8------2---9---9---8---7---5---|| (x2)
||---2---8---7---9---8------2---7---9---8---7---5---||
||---0---6-------7---6------0-------7---6---5---3---||


||--------------------------------------------------||
||--------------------------------------------------||
||-----------9----------------------9---------------||
||---2---8---9---9---8------2---8---9---9---8---5---|| (x4)
||---2---8---7---9---8------2---8---7---9---8---5---||
||---0---6-------7---6------0---6-------7---6---3---||
     ^   ^   ^   ^   ^      ^   ^   ^   ^   ^   ^

||--------------------------------------------------||
||--------------------------------------------------||
||-----------9------------------9-------------------||
||---2---8---9---9---8------2---9---9---8---7---5---|| (x4)
||---2---8---7---9---8------2---7---9---8---7---5---||
||---0---6-------7---6------0-------7---6---5---3---||


||--------------------------------------------------||
||--------------------------------------------------||
||---7--7-7--5-7~~---9--9-9--7-9~~------------------||
||---7--7-7--5-7~~---9--9-9--7-9~~-------5p4--------|| (x3)
||---5--5-5--3-5~~---7--7-7--5-7~~---5h7-----7p5----||
||--------------------------------------------------||


||--------------------------------------------------||
||--------------------------------------------------||
||---7--7-7--5-7~~---9~~~~--------------------------||
||---7--7-7--5-7~~---9~~~~--------------------------|| (x1)
||---5--5-5--3-5~~---7~~~~--------------------------||
||--------------------------------------------------||


||--------------------------------------------------||
||--------------------------------------------------||
||-----------9------------------9-------------------||
||---2---8---9---9---8------2---9---9---8---7---5---|| (x2)
||---2---8---7---9---8------2---7---9---8---7---5---||
||---0---6-------7---6------0-------7---6---5---3---||

[ Tab from: http://www.guitartabs.cc/tabs/o/osbourne_ozzy/whos_fooling_who_tab.html ]
||--------------------------------------------------||
||--------------------------------------------------||
||-----------9----------------------9---------------||
||---2---8---9---9---8------2---8---9---9---8---5---|| (x2)
||---2---8---7---9---8------2---8---7---9---8---5---||
||---0---6-------7---6------0---6-------7---6---3---||
     ^   ^   ^   ^   ^      ^   ^   ^   ^   ^   ^

||--------------------------------------------------||
||--------------------------------------------------||
||-----------9------------------9-------------------||
||---2---8---9---9---8------2---9---9---8---7---5---|| (x2)
||---2---8---7---9---8------2---7---9---8---7---5---||
||---0---6-------7---6------0-------7---6---5---3---||


||--------------------------------------------------||
||--------------------------------------------------||
||---7--7-7--5-7~~---9--9-9--7-9~~------------------||
||---7--7-7--5-7~~---9--9-9--7-9~~-------5p4--------|| (x3)
||---5--5-5--3-5~~---7--7-7--5-7~~---5h7-----7p5----||
||--------------------------------------------------||


||--------------------------------------------------||
||--------------------------------------------------||
||---7--7-7--5-7~~---9~~~~--------------------------||
||---7--7-7--5-7~~---9~~~~--------------------------|| (x1)
||---5--5-5--3-5~~---7~~~~--------------------------||
||--------------------------------------------------||

(Solo goes here. Don't have the time to tab it, sorry...I'll try to add it soon)

||--------------------------------------------------||
||--------------------------------------------------||
||-----------9------------------9-------------------||
||---2---8---9---9---8------2---9---9---8---7---5---|| (x4)
||---2---8---7---9---8------2---7---9---8---7---5---||
||---0---6-------7---6------0-------7---6---5---3---||


||--------------------------------------------------||
||--------------------------------------------------||
||---7--7-7--5-7~~---9--9-9--7-9~~------------------||
||---7--7-7--5-7~~---9--9-9--7-9~~-------5p4--------|| (x3)
||---5--5-5--3-5~~---7--7-7--5-7~~---5h7-----7p5----||
||--------------------------------------------------||


||--------------------------------------------------||
||--------------------------------------------------||
||-----------9------------------9-------------------||
||---2---8---9---9---8------2---9---9---8---7---5---|| (x8)
||---2---8---7---9---8------2---7---9---8---7---5---||
||---0---6-------7---6------0-------7---6---5---3---||


||----------||
||----------||
||----------||
||---2~~~---|| (x2)
||---2~~~---||
||---0~~~---||
Comments