Osbourne Ozzy - Steal Away(the Night) Chords & Tabs

 

Steal Away(the Night) Chords & Tabs

Osbourne Ozzy Chords & Tabs

Version: 2 Type: Tab 0 ratings
1 star 2 stars 3 stars 4 stars 5 stars
comments

Steal Away(the Night) Tab

   
zzy Osbourne
Steal away the Night

        
        Bsus4 Asus4   Bsus4 Asus4 Bsus4 C5  Gsus4 Fsus4   F#F5F#B5
   4/4
    Gtr I
||------------------|-----------------|-----------------|---------------------||
||o-----------------|-----------------|-----------------|--------------------o||
||------9-----7-----|-9-----7-----9\--|-----5-----3-----|-------4-(4)-4-------||
||------9-----7-----|-9-----7-----9\--|-----5-----3-----|-------4-(4)-4-------||
||o-----------------|-----------------|-3-3-------------|-4-3-4-2-(2)-2------o||
||--0-0---7-9---9-7-|---7-9---9-7-----|-------3-5---5-3-|-2-1-2---------2h3---||


                       Verse 1 and 2
  2.
  F#F5F#B5                  Bsus4 Asus4   Bsus4 Asus4   Bsus4 DsusD5
|-------------------||------------------|-----------------|-----------|
|-------------------||o-----------------|-----------------|-----------|
|-------4-(4)-4-----||------9-----7-----|-9-----7-----7h9-|-----------|
|-------4-(4)-4-----||------9-----7-----|-9-----7-----7h9-|---5---7---|
|-4-3-4-2-(2)-2-----||o-----------------|-----------------|---5---5---|
|-2-1-2---------3p2-||--x-x---x-x---x-x-|---x-x---x-x-----|-----------|


  G   Asus4      G5         N.C.              B5
|--------------|-3--------|-----------------|-----------------|
|--------------|-3--------|-----------------|-----------------|
|-4------------|-0--------|-----------------|-----4-----4-4---|
|-5---7--------|-0--------|-----------------|-----------------|
|-----5--------|----------|-----3-2-0-------|-2-2---2-2-----2-|
|-----5---12\--|-3--------|-0-3-------3-2-0-|-----------------|


  B                         Bsus4 Asus4   Bsus4 Asus4    Bsus4   DsusD5
|---------------------|-----------------|------------------|--------------|
|---------------------|-----------------|------------------|--------------|
|-2-4p2---2-4p2---2-4-|-----9-----7-----|-9-----7-(7)--7-9-|--------------|
|-------4-------4-2-4-|-----9-----7-----|-9-----7-(7)--7-9-|-----5---7----|
|---------------------|-----------------|------------------|-----5---5----|
|---------------------|-0-0---7-9---0-0-|---7-9------------|-x-x----------|


  G   Asus4      G5         N.C.              Bsus4    B5
|--------------|-3--------|-----------------|-------------|
|--------------|-3--------|-----------------|-----5-------|
|-4------------|-0--------|-----------------|-----4----4--|
|-5---7--------|-0--------|-----------------|-----4----4--|
|-----5--------|----------|-----3-2-0-------|-2-2-2----2--|
|-----5---12\--|-3--------|-0-3-------3-2-0-|-------------|


                        Chorus
  N.C.                   E          B5 E5         Bsus4           E
  \0.25____/
|---------------------||------------------|-----------------|------------------|
|---------------------||-----9--(9)-------|-9---------------|-----9--(9)-------|
|---------------------||-----9--(9)-11-9--|-9-----9---------|-----9--(9)-------|
|---------------------||-----9--(9)--9-9--|-9---7-9-9-7-6---|-----9--(9)-9-----|
|---------------------||-----7--(7)----7--|-7-7-----------7-|-----7--(7)-7-7h9-|
|-0-------(0)----(0)--||-0-0--------------|-----------------|-0-0--------------|


  E                              B5 E5
|-------------------|------------------|
|-9-----------------|-----9--(9)-------|
|-9-------9---------|-----9--(9)-11-9--|
|-9---7h9---9-7-6---|-----9--(9)--9-9--|
|-7-7-------------7-|-----7--(7)----7--|
|-------------------|-0-0--------------|


                   1.
                  N.C.
|-----------------|-------------------------|
|-----------------|-------------------------|
|-------9---------|-4-4-4-5-5-5-6-6-6-7-7-7-|
|-----9---9-7-6---|-------------------------|
|-6-7-----------7-|-2-2-2-3-3-3-4-4-4-5-5-5-|
|-----------------|-------------------------|


  N.C.                        F#sus4Esus4 F#sus4
|---------------------------|-----------------|
|---------------------------|-----------------|
|-8-8-8-9-9-9-10-10-10-11\--|-4-----2-----4---|
|---------------------------|-4-----2-----4---|
|-6-6-6-7-7-7--8--8--8--9\--|---0-0---0-0---0-|
|---------------------------|-----------------|


    Esus4 F#suEsus4 F#sus4Esus4 F#sus4
|-----------------|-----------------|
|-----------------|-----------------|
|---2-----4---2---|-4-----2-----4---|
|---2-----4---2---|-4-----2-----4---|
|-0---0-0---0---0-|---0-0---0-0---0-|
|-----------------|-----------------|


                     2.
    Esus4 F#sus4      N.C.
|------------------||-7-7-7-8-8-8-9-9-9-10-10-10-|
|-----------------o||----------------------------|
|---2-----4--------||-4-4-4-5-5-5-6-6-6--7--7--7-|
|---2-----4--------||----------------------------|
|-0---0-0---0-----o||----------------------------|
|-------------3-2--||----------------------------|


|-11-11-11-12-12-12-13-13-13-14\---||
|----------------------------------||
|--8--8--8--9--9--9-10-10-10-11\---||
|----------------------------------||
|----------------------------------||
|----------------------------------||


   Interlude
        Bsus4 Asus4   Bsus4 Asus4 Bsus4     Gsus4 FsusF#5 F#F5F#B5
||------------------|-----------------|-----------------|---------------------||
||o-----------------|-----------------|-----------------|--------------------o||
||------9-----7-----|-9-----7-----9\--|-----5-----3-----|-------4-(4)-4-------||
||------9-----7-----|-9-----7-----9\--|-----5-----3-----|-------4-(4)-4-------||
||o-----------------|-----------------|-3-3-------------|-4-3-4-2-(2)-2------o||
||--0-0---7-9---9-7-|---7-9---9-7-----|-------3-5---5-3-|-2-1-2---------3p2---||


  E5         B5   A5        G5               Asus4A
|----------|----------------3-|-(3)--------|-----------------|
|----------|-12---10-(10)---3-|-(3)--------|-15---14--(14)---|
|-9--------|-11----9--(9)---0-|-(0)--------|-14---14--(14)---|
|-9--------|--9----7--(7)---0-|-(0)--------|-14---14--(14)---|
|-7--------|------------------|------------|-12---12--(12)---|
|----------|----------------3-|-(3)--------|-----------------|


  E          B5   A5       F#G5               Asus4A
|----------|-------------------|------------|-----------------------||
|----------|-12---10-(10)--7-8-|-(8)--------|-15---14-(14)----10-11-||
|-9--------|-11----9--(9)--6-7-|-(7)--------|-14---14-(14)-12-10-12-||
|-9--------|--9----7--(7)--4-5-|-(5)--------|-14---14-(14)-12-------||
|-7--------|-------------------|------------|-12---12-(12)----------||
|----------|-------------------|------------|-----------------------||


 Guitar Solo
  G5
  Gtr I
|-----------------------|---------------------------|
|-----------------------|---------------------------|
|-----------------------|---------------------------|
|-----------------------|---------------------------|
|--5-5-5-5-5-5--5--5----|---5---5--5--5--5--5--5--5-|
|--3-3-3-3-3-3--3--3----|---3---3--3--3--3--3--3--3-|
|
| Gtr II
|  ~~                                             ~~~
|--------------10-13b15-|-(13)-13-10----------------|
|-11--------------------|------------13-11----13-11-|
|-12--------------------|------------------12-------|
|-----------------------|---------------------------|
|-----------------------|---------------------------|
|-----------------------|---------------------------|


|---------------------------|-----------------|
|---------------------------|-----------------|
|---------------------------|-----------------|
|---------------------------|-----------------|
|--5--5-5-5-5---5---5---5---|-5-5-5-5-5-5-5-5-|
|--3--3-3-3-3---3---3---3---|-3-3-3-3-3-3-3-3-|
|
|~~~~~                        ~
|---------------------------|-----------------|
|-11\-------3h4p3h4p3-------|-----------------|
|---------------------6p3p0-|-----------------|
|---------------------------|---------------5-|
|---------------------------|-4-----------7---|
|---------------------------|-----------------|


|---------------------------------|-------------------------------|
|---------------------------------|-------------------------------|
|---------------------------------|-------------------------------|
|---------------------------------|-------------------------------|
|-5---5---5---5---5---5---5---5---|-5---5---5---5---5---5-5---5---|
|-3---3---3---3---3---3---3---3---|-3---3---3---3---3---3-3---3---|
|
|---------------------------------|-------------------------------|
|-8p5-----5p2-----2---------------|-------------------------------|
|-------6-------3---3p==0-3p0-----|-------------------------------|
|-------------------------------2-|-5p2-----2---------------------|
|---------------------------------|-------4---4p==1-4p1-----1---4-|
|---------------------------------|-----------------------3-------|


|----------------------------------|
|----------------------------------|
|----------------------------------|
|----------------------------------|
|-5---5---5---5---5---5---5---5----|
|-3---3---3---3---3---3---3---3----|
|
|----------------------------------|
|----------------------------------|
|-------------------------6h9p6----|
|---------2h5p2---5h8p5---------8--|
|-1h4p1---------4-------7----------|
|-------3--------------------------|


|---------------------------------------||
|---------------------------------------||
|---------------------------------------||
|---------------------------------------||
|-5------5--5----5----5----5---5----5---||
|-3------3--3----3----3----3---3----3---||
|
|--------9----9h12----9-12---9S7------7-||
|-8h11p8---11------11------------10-----||
|---------------------------------------||
|---------------------------------------||
|---------------------------------------||
|---------------------------------------||

[ Tab from: http://www.guitartabs.cc/tabs/o/osbourne_ozzy/steal_awaythe_night_tab_ver_2.html ]
  B5    A5B5                    A5B5
|-------------------------|--------------------|
|-------------------------|--------------------|
|--4----2-4\------------4-|-(4)-2-4------------|
|--4----2-4\------------4-|-(4)-2-4------------|
|--2----0-2\------------2-|-(2)-0-2---x-x-x-x--|
|-------------------------|--------------------|
|
|-10b12-------(10)-7------|--------------------|
|--------------------10-7-|--------------------|
|-------------------------|-10--9-7------------|
|-------------------------|-----------7---9----|
|-------------------------|---------9---9---9--|
|-------------------------|--------------------|


     A5 B5                       A5       B5
|-------------------------|---------------------------------------|
|-------------------------|---------------------------------------|
|--4--2-4\--------------4-|--(4)---2--------4---------------------|
|--4--2-4\--------------4-|--(4)---2--------4---------------------|
|--2--0-2\--------------2-|--(2)---0--------2---------x---x-x-x---|
|-------------------------|---------------------------------------|
|
|       ~~
|----------------17b19====|=(17)r(17)b19==(17)r(17)-(17)\---------|
|-------------------------|---------------------------------------|
|-----------/14-----------|---------------------------------------|
|-------9-----------------|-----------------------------------4S7-|
|-------------------------|---------------------------------------|
|-10-11-------------------|---------------------------------------|


        A5B5             A5B5
|------------------|------------------|
|------------------|------------------|
|-4-----2-4\-----4-|-(4)-2-4----------|
|-4-----2-4\-----4-|-(4)-2-4----------|
|-2-----0-2\-----2-|-(2)-0-2--x-x-x-x-|
|------------------|------------------|
|
| \0.5________________/
|------------------|------------------|
|------------------|------------------|
|------------------|------------------|
|-7----------------|-(7)---7--7-----7-|
|------------------|------------7h9---|
|------------------|------------------|


    A5B5                  A5 B5 A5    B5    A5   B5 A5
|-------------------|-------------------------------------|
|-------------------|-------------------------------------|
|-4-2--4\---------4-|-(4)--2--4--2-----4----2-----4--2----|
|-4-2--4\---------4-|-(4)--2--4--2-----4----2-----4--2----|
|-2-0--2\---------2-|-(2)--0--2--0-----2----0-----2--0----|
|-------------------|-------------------------------------|
|
|---7---------------|-----10---------------------12-17b19r|
|-----10----7-------|--------12-10-12S15p12h==15----------|
|-8-------9---9-7-8S|=11----------------------------------|
|-------------------|-------------------------------------|
|-------------------|-------------------------------------|
|-------------------|-------------------------------------|


  F#sus4    Esus4 F#sus4     Esus4     F#sus4     Esus4
|---------------------|-----------------------------------|
|---------------------|-----------------------------------|
|---4-------2-----4---|------2-----------4--------2-------|
|---4-------2-----4---|------2-----------4--------2-------|
|------0--0---0-0---0-|---0----0--0----------0-------0----|
|---------------------|-----------------------------------|
|
|         ~~
|-(17)---17-----------|-(17)-----17b19-(17)-17b19---17b19-|
|---------------------|-----------------------------------|
|---------------------|-----------------------------------|
|---------------------|-----------------------------------|
|---------------------|-----------------------------------|
|---------------------|-----------------------------------|


  F#sus4    Esus4 F#sus4     Esus4 F#sus4     Esus4
|---------------------|-------------------------------|
|---------------------|-------------------------------|
|--4--------2-----4---|------2-------4--------2-------|
|--4--------2-----4---|------2-------4--------2-------|
|-------0-0---0-0---0-|---0----0-0-------0-------0----|
|---------------------|-------------------------------|
|
|  ~~~~~~~~~~~~~~~~~~~~~~~~~~~~~~~~~~~~~
|-17b19---------------|-(17)-------(17)-17b19---17b19r|
|---------------------|-------------------------------|
|---------------------|-------------------------------|
|---------------------|-------------------------------|
|---------------------|-------------------------------|
|---------------------|-------------------------------|


  F#sus4   Esus4 F#sus4     Esus4 F#suEsus4
|--------------------|--------------------------------|
|--------------------|--------------------------------|
|---4------2-----4---|------2-----4----2--------------|
|---4------2-----4---|------2-----4----2--------------|
|------0-0---0-0---0-|---0----0-0---0--------0--------|
|--------------------|--------------------------------|
|
|   ~~~~
|-(17)---------------|-(17)-----------17b19r17-17b19r=|
|--------------------|--------------------------------|
|--------------------|--------------------------------|
|--------------------|--------------------------------|
|--------------------|--------------------------------|
|--------------------|--------------------------------|


  F#sus4 Esus4 F#sus4       Esus4 F#sus4
|------------------|----------------------|
|------------------|----------------------|
|--4-----2-----4---|--------2-----4-------|
|--4-----2-----4---|--------2-----4-------|
|----0-0---0-0---0-|--0-------0-0---0-----|
|------------------|------------------3-2-|
|
|  ~~
|-17---------------|-17b19\---------------|
|------------------|----------------------|
|------------------|----------------------|
|------------------|----------------------|
|------------------|----------------------|
|------------------|----------------------|


   Re-Intro
        Bsus4 Asus4   Bsus4 Asus4 Bsus4
||------------------|-----------------|
||o-----------------|-----------------|
||------9-----7-----|-9-----7-----9\--|
||------9-----7-----|-9-----7-----9\--|
||o-----------------|-----------------|
||--0-0---7-9---9-7-|---7-9---9-7-----|
|
||------------------|-----------------|
||o-----------------|-----------------|
||------------------|-----------------|
||------------------|-----------------|
||o-----------------|-----------------|
||------------------|-----------------|


                                         Verse 3
      Gsus4 Fsus4   F#F5F#B5                  Bsus4 Asus4   Bsus4 Asus4   Bsus4
|-----------------|--------------------||-----------------|-----------------|
|-----------------|-------------------o||-----------------|-----------------|
|-----5-----3-----|-------4-(4)-4------||-----9-----7-----|-9-----7-----7h9-|
|-----5-----3-----|-------4-(4)-4------||-----9-----7-----|-9-----7-----7h9-|
|-3-3-------------|-4-3-4-2-(2)-2-----o||-----------------|-----------------|
|-------3-5---5-3-|-2-1-2---------2h3--||-x-x---x-x---x-x-|---x-x---x-x-----|


    G5  D5    G   Asus4      G5         N.C.
|-----------|--------------|-3--------|-----------------|
|-----------|--------------|-3--------|-----------------|
|-----------|-4------------|-0--------|-----------------|
|---5---7---|-5---7--------|-0--------|-----------------|
|---5---5---|-----5--------|----------|-----3-2-0-------|
|-----------|-----5---12\--|-3--------|-0-3-------3-2-0-|


  B5                                          Bsus4 Asus4   Bsus4 Asus4    Bsus4
|-----------------|---------------------|-----------------|--------------------|
|-----------------|---------------------|-----------------|--------------------|
|-----4-----4-4---|-2-4p2---2-4p2---2-4-|-----9-----7-----|-9-----7-(7)--7-9---|
|-----------------|-------4-------4-2-4-|-----9-----7-----|-9-----7-(7)--7-9---|
|-2-2---2-2-----2-|---------------------|-----------------|--------------------|
|-----------------|---------------------|-0-0---7-9---0-0-|---7-9--------------|


      G5  D5    G   Asus4      G5         N.C.
|-------------|--------------|-3--------|-----------------|
|-------------|--------------|-3--------|-----------------|
|-------------|-4------------|-0--------|-----------------|
|-----5---7---|-5---7--------|-0--------|-----------------|
|-----5---5---|-----5--------|----------|-----3-2-0-------|
|-x-x---------|-----5---12\--|-3--------|-0-3-------3-2-0-|


      Bsus4B5
                \0.25____/
|-------------|---------------------|
|-----5-------|---------------------|
|-----4----4--|---------------------|
|-----4----4--|---------------------|
|-2-2-2----2--|---------------------|
|-------------|-0-------(0)----(0)--|


   Chorus
        E      B5 E5   E
||-------------------|-----------------|------------------|
||o-----9--(9)-------|-9---------------|-----9--(9)-------|
||------9--(9)-11-9--|-9-----9---------|-----9--(9)-------|
||------9--(9)--9-9--|-9---7-9-9-7-6---|-----9--(9)-9-----|
||o-----7--(7)----7--|-7-7-----------7-|-----7--(7)-7-7h9-|
||--0-0--------------|-----------------|-0-0--------------|


  E                              B5 E5
|-------------------|------------------|
|-9-----------------|-----9--(9)-------|
|-9-------9---------|-----9--(9)-11-9--|
|-9---7h9---9-7-6---|-----9--(9)--9-9--|
|-7-7-------------7-|-----7--(7)----7--|
|-------------------|-0-0--------------|


                   1.,2.
  N.C.
|-----------------|-7-7-7-8-8-8-9-9-9-10-10-10-|
|-----------------|----------------------------|
|-------9---------|-4-4-4-5-5-5-6-6-6--7--7--7-|
|-----9---9-7-6---|----------------------------|
|-6-7-----------7-|----------------------------|
|-----------------|----------------------------|


                                     3.
  N.C.                                B5  C5     C#5      D5  D#5     E7+9
|-11-11-11-12-12-12-13-13-13-14\---||---------------|---------------|-------*|
|---------------------------------o||---------------|---------------|-8\----*|
|--8--8--8--9--9--9-10-10-10-11\---||---------------|---------------|-7\----*|
|----------------------------------||-4---5-(5)--6--|-(6)-7---8--8--|-6\----*|
|---------------------------------o||-2---3-(3)--4--|-(4)-5---6--6--|-7\----*|
|----------------------------------||---------------|---------------|-------*|



Comments