Osbourne Ozzy - Revelation Chords & Tabs

 

Revelation Chords & Tabs

Osbourne Ozzy Chords & Tabs

Version: 2 Type: Tab 1 rating
1 star 2 stars 3 stars 4 stars 5 stars
comments

Revelation Tab

   
Artist: Ozzy Osbourne
Song: Revelation
Tabbed by: John Leadman






(Clean)
Intro         Em                B7/D#                    Em
|------------|-3-----2-----0---|-2----------------------|-3-----2-----0----|
|------------|-----0-----0-----|-----0-h-1--0-----------|-----0-----0------|
|-------3--4-|---0-----0-------|-------------------3--4-|---0-----0--------|
|------------|-2---------------|-1-------------1--------|-2----------------|
|------------|-----------------|------------------------|------------------|
|------------|-----------------|------------------------|------------------|

 B7                    Em                  G
|-2-------------------|-3-----2-----0-h-2-|-3-----------3-p-2--2h3p2p0--|
|-----0---1--0--------|-----0-----0-------|---------0-------------------|
|----------------3--4-|---0-----0---------|------0----------------------|
|-1-------------------|-2-----------------|-----------------------------|
|---------------------|-------------------|----2------------------------|
|---------------------|-------------------|-3---------------------------|

 D              B7/D#                F/Am Am     F#  Em
|--------3-p-2-|-2------------------|---------------|-0--7--6--7--5--------|
|-3------------|----0--1----0-------|-7---5---5---4-|-0--------------8--7--|
|------2-------|---------------3--4-|-5---5---5---2-|-4--------------------|
|-0------------|-1------------------|-7---7---7---4-|-2--------------------|
|--------------|--------------------|---------------|----------------------|
|--------------|--------------------|---------------|----------------------|
[ Tab from: http://www.guitartabs.cc/tabs/o/osbourne_ozzy/revelation_tab_ver_2.html ]
                       Verse
                        Em              B7             Harm.
|----7--5\3--5---------|-3-----2-----0-|-2--------------------2-p-0--|
|-8--8--7\5--7---------|-----0-----0---|-----0-h-1--0----------------|
|----------------3-h-4-|---0-----0-----|---2-----------x12x----------|
|----------------------|-2-------------|-1---------------------------|
|----------------------|---------------|-----------------------------|
|----------------------|---------------|-----------------------------|
                        Mother please forgive them--  for they

Em               B7                  Em              G
|-3-----2-----0-|-2---3-------------|-3-----2-----0-|-3--------------------|
|-----0-----0---|---0----1-p-0------|-----0-----0---|------0----3----------|
|---0-----0-----|---------------3/4-|---0-----0-----|----0-----------------|
|-2-------------|-1-----------------|-2-------------|----------------------|
|---------------|-------------------|---------------|-2------------0--2----|
|---------------|-------------------|---------------|-3-----------------0--|
know not what they do                Looking back in history books, it

 D              B7/D#                 F/Am Am   F#  Em
|-2----------0-|-2--------------------|------------|----7-6-7p5-------|
|---------3----|-------0-h-1--0-------|-7--5--5--4-|----8---8----8p7--|
|------2-------|-----------------3--4-|-5--5--5--2-|------------------|
|-0------------|----2-----------------|-7--7--7--4-|------------------|
|--------------|-1--------------------|------------|-X----------------|
|--------------|----------------------|------------|-0----------------|
seems it's nothing new.     Oh!        Let my mother live.

 Harm.                    Em              B7
|------7--5\3--3/5-------|-3-----2-----0-|-2---------------------------|
|------8--7\5--5/7-------|-----0-----0---|----0-1--0h1p0h1p0-----------|
|-------------------3--4-|---0-----0-----|--------------------3--4-----|
|------------------------|-2-------------|-1---------------------------|
|------------------------|---------------|-----------------------------|
|-x5x--------------------|---------------|-----------------------------|
                          Heaven is for heroes--                 and

 Em               B7              Em              G
|-3-----2-----0-|-2/3\2h3--------|-3-----2-----0-|-3------3-

Comments