Osbourne Ozzy - Perry Mason Chords & Tabs

 

Perry Mason Chords & Tabs

Osbourne Ozzy Chords & Tabs

Version: 1 Type: Bass Tab 0 ratings
1 star 2 stars 3 stars 4 stars 5 stars
comments

Perry Mason Bass Tab

FTH80:G D A E ; Generated by Fast Tab, do not erase
====================
>From            : JOE SEDIVY (joesedivy@aol.com, or dedman247@aol.com)
Shameless plug  : http://ragecomics.tripod.com			
Artist          : OZZY
Bass Performance: GEEZER BUTLER
Comments:       : I FIGURED I USE THE ARCHIVE ENOUGH ITS ABOUT TIME I PUT SOMETHING 
		BACK INTO IT
		
		 THIS IS JUST THE BEGINNING IT TOOK ME LONG ENOUGH TO TAB 
		THIS.  I WILL EVENTUALLY TAB OUT THE REST OF IT.  THE ORIGINAL
		ONE THAT WAS UP ON THE ARCHIVE IS OFF.  I'M NOT SAYING THAT IT WAS 
		WRONG, BUT THIS IS BETTER WITH MORE OF IT THAN JUST THE INTRO LIKE
		THAT ONE HAD.  IF ANYONE HAS ANY SUICIDAL TENDENCIES, OR JUST 
		INTERESTING TABS IN GENERAL PLEASE SEND THEM TO ME.
---
Strings: E ,A ,D ,G (I ACTUALLY THINK IT IS TUNED DOWN A STEP, BUT I DIDN'T 
	WANT TO PUT SOMETHING ELSE HERE.  PLAY WITH IT YOURSELF)
Symbols explanations:
  H: hammer on  P: pull off
  +: slap       .: pop
  \: slide up   /: slide down
  --x~~x~~x: triplets
====================

|  intro part 1
G --------------2--1--0-------
D -------------------------32-
A --5--0--3--5-----------------------------
E ------------------
>                                                                                
  intro part 2
[ Tab from: http://www.guitartabs.cc/tabs/o/osbourne_ozzy/perry_mason_btab.html ]
G -----------3----3--3--------5-----5-----------2-
D ----1--3------1-------1--3-----5--------2-------2
A -1-----------------------------------0-----0---
E ----------------------------------------------


|Verse Lead in
G -----------3-----3-----------5-----5-------------------------------------------
D --------3-----3-----1--3--------5-----5--------------3--5--------6--5--3H-5--3-
A -----1--------------------3--------------0--0--5--5--------5--5----------------
E -------------------------------------------------------------------------------
>                                                                                

|    
G -------------------------------------------------------------------------------
D --------3H-5--------6--5--3--------3H-5--------6--5--3H-5--3------H-3H-5-------
A --5--5--------5--5-----------5--5--------5--5-----------------5--5--------5--5-
E -------------------------------------------------------------------------------
>                                                                                

G ----------
D --6--5--3-
A ----------
E ----------
>                                                                         

    VERSE
G --------------------------------------------------------------
D -------3H-5--------6--5--3H-5--3-----------3H-5---------------
A -5--5--------5--5--------------------5--5--------5--5---------
E -------------------------------------------------------4--3--1

That should be enough to get you going.  Now go drink some beer, 
and check out http://ragecomics.tripod.com

Comments