Osbourne Ozzy - Momma Im Comin Home Chords & Tabs

 

Momma Im Comin Home Chords & Tabs

Osbourne Ozzy Chords & Tabs

Version: 1 Type: Tab 2 ratings
1 star 2 stars 3 stars 4 stars 5 stars
comments

Momma Im Comin Home Tab

   
                          Momma in coming home

intro
----12-----------------------------------------------------------------------------------------------------
--------12-------------------------------------------------------------------------------------------------
--------------11br----9-----------------------------------------------------------------------------------
------------------------------------------------------------------------------------------------------------
------------------------------------------------------------------------------------------------------------
-----------------------------0-----------------------------------------------------------------------------


Riff 1                                                             .x3
---------0---------0--------------0---------0--------------0--------0--------------0----------0---------
-------------0--------0--------------0---------0--------------0--------0--------------0----------0------
------/9-------8---------8---6----------4---------4---2---------1--------1-----------------------------
---------------------------------------------------------------------------------4-----------2-------------
------------------------------------------------------------------------------------------------------------
---------------------------------------------------------------------------------------------------------0-



Riff 2                                                      
--------------0---------------------0------------------------------0--------------------0-----------0----
-----------------0---------------------0------------------0----------0--------------------0-----------0--
---------2---------2-----------2---------2-------------------1----------1--------------------------------
-----2----------------2----2---------------2--------2----------------------2----1/2----------2/4-------
--0----------------------0---------------------------------------------------------------------------------
--------------------------------------------------0--------------------------------------------------------



Riff 3                                                            repeat chord                     repeat chord
-----6--------------7---------------9---------------------------------------------------------------------
-----7--------------7---------------9---------------------------------------------------------------------
-----8--------------8---------------10--------------------------------------------------------------------
-----8----.x5-------9----.x5--------11--------------------------------------------------------------------
-----6--------------9---------------11--------------------------------------------------------------------
-----6--------------7----------------9-----pm--pm---------------pm--pm-----------------------------



Riff 4
------------------------------------------------------------------------------------------------------------
---------------2--2--2--------------------------------------------2--2--2--------------------------------
---------------2--2--2---------------------------9---9------------2--2--2--------------------------------
---------------2--2--2--------4----4---4---------9---9------------2--2--2-------------------------------
------------------------------6----6---6---------7---7---------------------------------------------------
------2h3---------------------7----7---7-----------------------------------------------------------------



Riff 5
-------------0-------------------------0-------------------------------------------------------------------
---------1------1-----------------3------3----------------------------------------------------------------
------0------------0-----------0------------0-------------------------------------------------------------
---2------------------2-----4------------------4----------------------------------------------------------
-3------------------------5--------------------------------------------------------------------------------
------------------------------------------------------------------------------------------------------------


[ Tab from: http://www.guitartabs.cc/tabs/o/osbourne_ozzy/momma_im_comin_home_tab.html ]
Riff 6 ( intro to the solo)
-------------------------------------------------------------3----------5-------------12------------------
----------------------------------------------------------------3-----------5-------------12--------------
-------------------------------------------------------------------4-----------6---------------13---------
---------------------------------------------------------------------------------------------------14-----
---------5/9----------------------------------------9/5---------------------------------------------------
---------3/7-----pm-pm-pm-pm-pm-pm-pm—7/3-----------------------------------------------------------------



Riff 6
---------------------------------------3----------5--------------------------------------------------------
--------------------------------9v-------3----------5-----------------------------------------------------
--------12--11--9------9--11---------------4----------6--------------------------------------------------
-------------------12--------------------------------------------------------------------------------------
-----------------------------------------------------------------5/9-----------------------5/9-------------
-----------------------------------------------------------------3/7---pm-pm-pm-pm-pm-pm---3/7-------------


Riff 7  (solo)                                             play twice
------------------------------------------------------------------------------------------------------------
----------------------------------12b---12rp10----12---10---10h12p10---9-------------------------
---------------9------9---11br---------------------------------------------------------------------------
---------9h11-----11---------------------------------------------------------------------------------------
------------------------------------------------------------------------------------------------------------
------------------------------------------------------------------------------------------------------------



-------------------------------------------------------------------------------------------14-15-16-17--
---------------------------------------------------------17b--17b--17brp15--15h17------------------
---------9-------9v---11brp9-----9h12---9--12-------------------------------------------------------
-9h11-------11---------------------------------------------------------------------------------------------
------------------------------------------------------------------------------------------------------------
------------------------------------------------------------------------------------------------------------



------------------------------------------------------------------------------------------------------------
--17b--------15------------------------------------------------------------------------------------------
---------16------------------------------------------------------------------------------------------------
-----------------------------------------------------------------------------------------------------------
-----------------------------------------------------------------------------------------------------------
--------------------------------------------------------------------------------------------------------------
(end solo)



Riff 8 (outro)
----------0---------0----------0--------0-------0-----0--------0---------0------------------0----------
--------------0---------0---------0--------0----------------------0--------0----------------0----------
------/9--------8---------7---------4--------2-----1--------2----------1--------------------1----------
-----------------------------------------------------------------------------------4--------2----------
--------------------------------------------------------------------------------------------2----------
--------------------------------------------------------------------------------------------0----------



Riff order
Intro
Riff 1 
Riff 2
Riff 1
Riff 3
Riff 4
Riff 5
Riff 6
Riff 5
Riff 8


v=verbrato
b=bend
br=bend release
h=hammer on
p=pull off
brp=bend release pull off
rp=release pull off


 Thanks I hope everyone likes it it’s correct as far as I know later
 Andy Plunkett





Comments