Osbourne Ozzy - Miracle Man Chords & Tabs

 

Miracle Man Chords & Tabs

Osbourne Ozzy Chords & Tabs

Version: 1 Type: Bass Tab 0 ratings
1 star 2 stars 3 stars 4 stars 5 stars
comments

Miracle Man Bass Tab

=== Crankster's Ozzy Page
=== http://crankster.cjb.net
=== crankster@mailexcite.com

Transcriber - Ryan Silke 

Miracle Man
Ozzy Osbourne- No Rest for the Wicked

 Intro
 Gb---------|------------------------------------------------
 Db---------|------------------------------------------------
 Ab----R----|------------------------------------------------
 Eb---------|--0h2-2-2-2-2-2-2-2-2-2-2-2-2-2-2-2-2-2-2-2--2--

 Intro 2
 Gb------------------------------------------------------------
 Db------------------------------------------------------------
 Ab-------------------------------------------------------2----
 Eb--0h2-2-2-2-2-0h2-2-2-2-2-2-2-2-2-0h2-2-2-2-0h2-2-2-2-------

 Gb----------------------------------------------------------
 Db----------------------------------------------------------
 Ab-------------------------------------------------------2--
 Eb--0h2-2-2-2-2-0h2-2-2-2-2-2-2-2-2-0h2-2-2-2-0h2-2-2-2-----

 Verse
 Gb---------------------------------------------------------------------
 Db---------------------------------------------------------------------
 Ab--------------------------------------------------------------0h2----
 Eb--0h2-2-2-2-2-2-2-2-2-2-2-2-2-2-2--2--2--2---0h2-2-2-2-2-2-2---------

 Gb------------------------------------------------------------------
 Db------------------------------------------------------------------
 Ab-------------------------------------------------------------0-2--
 Eb--0h2-2-2-2-2-2-2-2-2-2-2-2-2-2-2--2--2--2---0h2-2-2-2-2-2-2------
[ Tab from: http://www.guitartabs.cc/tabs/o/osbourne_ozzy/miracle_man_btab.html ]
 Pre-Chorus
 Gb-----------------------------------------------------------------
 Db-----------------------------------------------------------------
 Ab--4-4-4-4-4-4-4-4--------0--0--2--4-4-4-4-4-4-4-4--0--0--2--0-2--
 Eb-------------------0--0------------------------------------------
                                   
 Gb---------------------------------------------------------------------
 Db---------------------------------------------------------------------
 Ab--4-4-4-4-4-4-4-4--------0--0--2---5555555544444444222222220000------
 Eb-------------------0--0----------------------------------------0000--

 Chorus
      "Miracle Man...got busted"    "Miracle Man.....got busted"         
 Gb----------------------------------------------------------------
 Db----------------------------------------------------------------
 Ab-------------------------------------------------------5-5-4-4--
 Eb--0h2-2-2-2-2-2-2-2-2-2-2-2-2--0h2-2-2-2-2-2-2-2-2-2-5----------

 repeat Intro 2
 repeat Verse
 repeat Pre-Chorus
 repeat Chorus x 2

 Bridge
 Gb--------------------
 Db--------------------
 Ab--------------------
 Eb--7\--2----7--5--4--

 Solo x 2
 Gb--------------------------------------------------------------------
 Db--------------------------------------------------------------------
 Ab----------------------------------5-5-5-5-5-5-5-5-------------------
 Eb--2-2-2-2-2-2-2-2-0-0-0-0-0-0-0-0-----------------7-7-7-7--7--5--4--

 More Solo
 Gb------------------------------------------------------------------------
 Db------------------------------------------------------------------------
 Ab--4--2--0--4-4-4-4-4-4-4-4-4-4-4-4-4-4-0-2-4-4-4-4-4-4-----------2---2--
 Eb--------------------------------------------------------0---5--5--------

 End Solo
 Gb------------------------------------------------------------------------------
 Db------------------------------------------------------------------------------
 Ab--4-4-4-4-4-4-4-4-4-4-4-4-4-4-0-2-4-4-4-4-4-4-4-4-----------4--2--0--5--4--2--
 Eb---------------------------------------------------7--5--4--------------------

 repeat Intro
 repeat Intro 2
 repeat Verse
 repeat Pre-Chorus
 repeat Chorus (repeat and fade out)

Comments