Osbourne Ozzy - Mama Im Coming Home Chords & Tabs

 

Mama Im Coming Home Chords & Tabs

Osbourne Ozzy Chords & Tabs

Version: 1 Type: Tab 5 ratings
1 star 2 stars 3 stars 4 stars 5 stars
comments

Mama Im Coming Home Tab

#----------------------------------PLEASE NOTE--------------------------------#
#This file is the author's own work and represents their interpretation of the#
#song. You may only use this file for private study, scholarship, or research.#
#-----------------------------------------------------------------------------#
#-- File created with Instab - http://www.pconline.com/~smcarey/instab.html --#
#-----------------------------------------------------------------------------#

Author/Artist: Ozzy Ozbourne
Title: Mama I'm Coming Home
Album: No More Tears
Transcribed by: Jamey 
This is as close as my ears can tell!

-12------|---0---0-----0---0-----0---0----0---0-|-----------------------------
---12----|----0---0-----0---0-----0---0----0---0|-----------------------------
-----11b9|--9---8---8\6---4---4\2---1---1-------|-----------------------------
---------|-------------------------------4---2--|-----------------------------
---------|--------------------------------------|-----------------------------
---------|0-------------------------------------|-----------------------------
          Riff #1.  LET OPEN NOTES RING THROUGHOUT!  Play Riff 1 twice        

-|---0---0-----0---0-----0---0----0---0-----0-------0-------0-------0-----0-|-
-|----0---0-----0---0-----0---0----0---0-----0----0--0---0---0-------0-----0|-
-|--9---8---8\6---4---4\2---1---1-------1--2--2----2--2---1---1--1/2---2/4--|-
-|-------------------------------4---2----2----2--------2--2----------------|-
-|---------------------------------------0-------0--------------------------|-
-|0-------------------------------------------------------------------------|-
     "Times have changed..."Play twice....This is Riff #2.                    

-|4-44--5-55--0-0-0-0-0--5-44--5-55------7--------7--|------------------------
-|4-55--5-55--0-0-0-0-0--5-55--5-55-------7--------7-|------------------------
-|6-66--6-66--1-1-2-2-1--6-66--6-66-----8--8-----8--8|------------------------
-|6-66--7-77--2-2-2-2-2--6-66--7-77----9----9---9----|------------------------
-|4-44--7-77--2-2-2-2-2--4-44--7-77---9--------9-----|------------------------
-|------5-55--0-0-0-0-0--------5-55--7--------7------|------------------------
     "You took me in"  Just strum this like it sounds...Then back to Riff #2. 

-|--------------------------------|---------------------------|---------------
-|--------------------------------|---------------------------|---------------
-|-6-6--2-2-----------------------|-6-6-2-2-4----4----4-------|---------------
-|-6-6--2-2-2--2^-----------------|-4-4-2-2-4----4----4-------|---------------
-|-4-4--0-0-2-----2^--------------|-4-4-0-0-2-22-2-22-2-22----|---------------
-|----------0-x--x--x3^-x-3^5^3^-x|------------------------2-4|---------------
     Play this with distortion                                                

-|---------------------|-------4-4-----------|--------------------------------
-|---------------------|-------4-4-----------|--------------------------------
-|-2-------------------|-2-2---4-4---9-9---2-|--------------------------------
-|-2-----2-2-----2-----|-2-2---4-4---9-9---2-|--------------------------------
-|-0-----2-2-----2-----|-0-0---6-6---7-7---0-|--------------------------------
-|-------0-0-x-x-0-2-4-|-------7-7-----------|--------------------------------
 Intro to Chorus.  Play twice then play the second bar once.                  
[ Tab from: http://www.guitartabs.cc/tabs/o/osbourne_ozzy/mama_im_coming_home_tab.html ]
-|-----0-------0-------0-------0----------------------------0-------0---|-----
-|---0--0----0--0----1--1----3--3-------------------------1--1----3--3--|-----
-|----2--2----4--4----0--0----0--0-------------------------0--0----0--0-|-----
-|--2-----2-4-----4-2-----2-4-----4--2-2-----2-2-----2---2-----2-4-----4|-----
-|-0-------2-------3-------5---------2-2-----2-2-----2--3-------5-------|-----
-|-----------------------------------0-0-x-x-0-0-x-x-0------------------|-----
   "Cause Mama...Mama I'm coming home.                 I'm coming home"       

-|---------------------|--3-----5------12^------------------------------------
-|---------------------|--3-3---5-5----12^-----------------9v-9\--------------
-|---------------------|--4---4-6---6--12^-12-11-9----9-11--------------------
-|-9-9-9-9-9-9-9-9-9---|--5-----7------------------12-------------------------
-|-9-9-9-9-9-9-9-9-9---|------------------------------------------------------
-|-7-7-7-7-7-7-7-7-7\0-|------------------------------------------------------
                        Solo interlude...Acoustic.  (Here ^= rue harmonics)   

-|-3----5-----12^---------------------------|---------------------------------
-|-3-3--5-5---12^---------------------------|---------------------------------
-|-4--4-6---6-12^---------------------------|---------------------------------
-|-5----7-----------------------------------|---------------------------------
-|------------------------------------------|---------------------------------
-|----------------12\-7-7-7-7-7-7-7-7-7-7-7\|---------------------------------
                                                                              

-|------------------|-12----12---------------------------|--------------------
-|------------------|-12b14-12b14b12p10h12-10-10h12p10\9v|--------------------
-|------9----9h11b13|------------------------------------|--------------------
-|-9h11---11--------|------------------------------------|--------------------
-|------------------|------------------------------------|--------------------
-|------------------|------------------------------------|--------------------
 Solo...This is pretty close if not exact!  Play this twice!                  

-|--------------------------------------------------------------------|-------
-|-------------------------------17-19--b19r-b19r-19-17-19b19p17h19-19|-------
-|------9----9v-9-11b13-11p9h11v--------------------------------------|-------
-|-9h11---11----------------------------------------------------------|-------
-|--------------------------------------------------------------------|-------
-|--------------------------------------------------------------------|-------
                                                                              

-|-16-17-18-19-19b21-16----------|--------------------------------------------
-|----------------------19p17----|--------------------------------------------
-|----------------------------18v|--------------------------------------------
-|-------------------------------|--------------------------------------------
-|-------------------------------|--------------------------------------------
-|-------------------------------|--------------------------------------------
  After the solo play the Intro to the Chorus then the chorus line.           

-|---0----0-----0-----0-----0---0---0-----0--------0-|------------------------
-|-----0----0-----0-----0-------------0-----0---0--0-|------------------------
-|-9----8-----6-----4-----2---1---2-----1----------1-|------------------------
-|--------------------------------------------4----2-|------------------------
-|-------------------------------------------------2-|------------------------
-|-------------------------------------------------0-|------------------------
  Here is the ending riff.  It's basically the opening with a slite change.   

Comments