Osbourne Ozzy - Mama Im Coming Home Solo Chords & Tabs

 

Mama Im Coming Home Solo Chords & Tabs

Osbourne Ozzy Chords & Tabs

Version: 1 Type: Tab 0 ratings
1 star 2 stars 3 stars 4 stars 5 stars
comments

Mama Im Coming Home Solo Tab

#---------------------------------YOU BEST NOTE-------------------------------#
#This file is the author's own work and represents their interpretation of the#
#song. You may only use this file for private study, scholarship, or research.#
#-----------------------------------------------------------------------------#
#---------------------------------YOU BEST NOTE-------------------------------#
#This file is the author's own work and represents their interpretation of the#
#song. You may only use this file for private study, scholarship, or research.#
#-----------------------------------------------------------------------------#


Mama I'm Coming Home Solo

Ozzy Osbourne

Transcribed by Brian S.

[ Tab from: http://www.guitartabs.cc/tabs/o/osbourne_ozzy/mama_im_coming_home_solo_tab.html ]
Solo : w/ delay                     
Eb|----------------------------12---12vvvv-----------------------|
Bb|----------------------------12b--12bvvv--12b14r12p10--12vvv---|
Gb|o-------9----9--11vb13vvv\------------------------------------|
Db|o--9h11---11--------------------------------------------------|
Ab|--------------------------------------------------------------|
Eb|--------------------------------------------------------------|

Eb---------------------------|
Bb--10vvv-10h12p10--9vvvvv---|
Gb--------------------------o|
Db--------------------------o|
Ab---------------------------|
Eb---------------------------|

Eb------------------------------------------14b16--14b16--12h14-14b--12-|
Bb----------------------------------------------------------------------|
Gb-------9----9vvv--11b13r11p9-11vvv--9-h11-----------------------------|
Db--9h11---11-----------------------------------------------------------|
Ab----------------------------------------------------------------------|
Eb----------------------------------------------------------------------|

Eb-14b16r14p12-14vvv---16-17-18-19-19b21v----------------------|
Bb----------------------------------------19b21r19p17----17vvv-|
Gb----------------------------------------------------18-------|
Db-------------------------------------------------------------|
Ab-------------------------------------------------------------|
Eb-------------------------------------------------------------|
Comments