Osbourne Ozzy - Killer Of Gaints Chords & Tabs

 

Killer Of Gaints Chords & Tabs

Osbourne Ozzy Chords & Tabs

Version: 1 Type: Tab 1 rating
1 star 2 stars 3 stars 4 stars 5 stars
comments

Killer Of Gaints Tab

 Ozzy Osbourne 
Killer Of Giants
 4/4
  Gtr I
|---------0---------------0--|-(0)--------|
|-----------0-----------0----|-(0)--------|
|-------9-----9-------5------|-(5)--------|
|-----9---------9---5--------|-(5)--------|
|---7-------------3----------|-(3)--------|
|-0--------------------------|------------|


|---------0---------------0--|-(0)----|
|-----------0-----------0----|-(0)----|
|-------9-----9-------5------|-(5)----|
|-----9---------9---5--------|-(5)----|
|---7-------------3----------|-(3)----|
|-0--------------------------|--------|


||----------0---------------0-------|---------0---------------0--------|
||o-----------0-----------0---0-----|-----------0---------------0------|
||--------9-----9-------5-------5---|-------9-----9---------7-----7----|
||------9---------9---5-----------5-|-----9---------9-----8---------8--|
||o---7-------------3---------------|---7---------------8--------------|
||--0-------------------------------|-0---------------6----------------|


|---------0---------------0-------|---------0---------------0--------||
|-----------0-----------0---0-----|-----------0---------------0-----o||
|-------9-----9-------5-------5---|-------4-----4---------2-----2----||
|-----9---------9---5-----------5-|-----5---------5-----3---------3--||
|---7-------------3---------------|---5---------------3-------------o||
|-0-------------------------------|-3---------------1----------------||


|---------3---------------3-------|---------3-------6-----5-----3---|
|-------3---3-----------3---3-----|-------3---3-------3-----3-----3-|
|-----5-------5-------5-------5---|-----3-------3-------3-----3-----|
|---5-----------5---5-----------5-|---3-----------3-----------------|
|-3---------------3---------------|-3-------------------------------|
|---------------------------------|---------------------------------|


|---------3---------------3-------|---------3-------6-----5-----3---|
|-------3---3-----------3---3-----|-------3---3-------3-----3-----3-|
|-----5-------5-------5-------5---|-----3-------3-------3-----3-----|
|---5-----------5---5-----------5-|---3-----------3-----------------|
|-3---------------3---------------|-3-------------------------------|
|---------------------------------|---------------------------------|


|---------5---------------5-------|---------5-------8-----7-----5---|
|-------5---5-----------5---5-----|-------5---5-------5-----5-----5-|
|-----7-------7-------7-------7---|-----5-------5-------5-----5-----|
|---7-----------7---7-----------7-|---5-----------5-----------------|
|-5---------------5---------------|-5-------------------------------|
|---------------------------------|---------------------------------|


|---------5---------------5-------|---------5-------^8----|
|-------5---5-----------5---5-----|-------5---5-----^5----|
|-----7-------7-------7-------7---|-----5-------5---^5----|
|---7-----------7---7-----------7-|---5-----------5-^5----|
|-5---------------5---------------|-5----------------5----|
|---------------------------------|-----------------------|


|-0-------0-------0-------0-------|--0--------0-------0-------0--------|
|---0-------0-------0-------0-----|-----0-------0-------0-------0------|
|-----6-------6-------6-------6---|-------5-------5-------5-------5----|
|-------6-------6-------6-------6S|=(5)-----5-------5-------5-------5S=|
|---------------------------------|------------------------------------|
|---------------------------------|------------------------------------|


|--0--------0-------0-------0-------|--0--------0-------0-------0--------|
|-----0-------0-------0-------0-----|-----0-------0-------0-------0------|
|-------6-------6-------6-------6---|-------5-------5-------5-------5----|
|-(6)-----6-------6-------6-------6S|=(5)-----5-------5-------5-------5S=|
|-----------------------------------|------------------------------------|
|-----------------------------------|------------------------------------|


|--0------------------0-----------------|--0----------------------0--------||
|-----0-------------0---0-------------0-|-----0-----------------0---0------||
|-------2---------2-------2---------2---|-------2------------2---------2---||
|-(2)-----2-(2)-2-----------2-(2)-2-----|---------4-(4)---4----------------||
|------------0-----------------0--------|-(0)--------2--2---(2)-------(2)--||
|---------------------------------------|----------------------------------||


 Verse
 4/4
|-------2---------------------|-------4-------------------------|
|---------2-----7-----5-----5-|---------5------5p=4-----4-------|
|-----------2-----4-----4-----|-6---6-----6---------4-----6-----|
|-----4-------4-----4-----4---|---6---------6---------4-----6---|
|---4-------------------------|-4-------------(4)-6-----6-----4-|
|-2-------------4-----5-------|---------------------------------|


|----------------------7-------------|
|--------9-----10--------10p9--------|
|------9-----9-----9----------9------|
|----9---------------9----------9----|
|-/7-------7---(7)-------------------|
|------------------------------------|


|---------------------------------|-------2---------------------|
|-------7-9-----9-7-----7-9-------|---------2-----7-----5-----5-|
|-----7-----9-------7-------9-----|-----------2-----4-----4-----|
|---7---------7-------7-------7---|-----4-------4-----4-----4---|
|-5---------------5---------------|---4-------------------------|
|---------5---------------5---5-4-|-2-------------4-----5-------|


|-------4----------------------|----------------------7p=========|
|---------5-----4-5-/7-5-4-----|--------9-----10--------10p9-----|
|-6---6-----6---4-6-/8-6-4-4---|------9-----9-----9----------9---|
|---6---------6--------------6-|----9---------------9----------9-|
|-4----------------------------|-/7-------7---(7)----------------|
|------------------------------|---------------------------------|


|-------------------------------||-----------------------------------------|
|-------7-9-----9-7-----7-9-----||o-2--------0---------5---------3---------|
|-----7-----9-------7-------9---||----0---0-----0---0-----0---0-----0---0--|
|---7---------7-------7-------7-||------0---------0---------0---------0----|
|-5---------------5-------------||o----------------------------------------|
|---------5---------------5-----||--3-------(3)-------(3)-------(3)--------|


|---------------------------------------|
|-2-----2------------5---------3--------|
|---4------4----4-------2---2-----4---4-|
|-----4-------4---4-------4---------4---|
|-2-------(2)-------(2)-------(2)-------|
|---------------------------------------|


|---------------------------------------|
|-2--------0---------5---------3--------|
|---0---0-----0---0-----0---0-----0---0-|
|-----0---------0---------0---------0---|
|---------------------------------------|
|-3-------(3)-------(3)-------(3)-------|


|-------------------------------|----------------------------------------|
|-----2---2-----2-----2---2-----|-2--------0---------5---------3---------|
|---4---4---4-----4-----4---4---|---0---0-----0---0-----0---0-----0---0--|
|-------------4-----4---------4-|-----0---------0---------0---------0----|
|-2-----------------------------|----------------------------------------|
|-------------------------------|-3-------(3)-------(3)-------(3)--------|


|---------------------------------------|
|-2-----2------------5---------3--------|
|---4------4----4-------2---2-----4---4-|
|-----4-------4---4-------4---------4---|
|-2-------(2)-------(2)-------(2)-------|
|---------------------------------------|


|---------------------------------------|
|-2--------0---------5---------3--------|
|---0---0-----0---0-----0---0-----0---0-|
|-----0---------0---------0---------0---|
|---------------------------------------|
|-3-------(3)-------(3)-------(3)-------|

[ Tab from: http://www.guitartabs.cc/tabs/o/osbourne_ozzy/killer_of_gaints_tab.html ]
                            Chorus
                             $
                    Gtr II
                                        PM----|
|-------2-------^2---------|--------------------|-----------------|
|-----2---2-----^2---------|-------2-2----------|-----------------|
|---4-------4---^4--11-9-7-|-6-4-4-4-4----------|-2---2-2--11-9-7-|
|---4---------4-^4--11-9-7-|-6-4-4-4-4--------2-|-2---2-2--11-9-7-|
|-2--------------2---9-7-5-|-4-2-2-2-2--2-4-5---|-0---0-0---9-7-5-|
|--------------------------|--------------------|-----------------|


             PM----|                          PM--|     PM|
|--------------------|-----------------|---3--------3--------|
|-------2-2----------|-----------------|---3--------3--------|
|-6-4-4-4-4----------|-2---2-2--11-9-7-|-2-0--------0--------|
|-6-4-4-4-4----------|-2---2-2--11-9-7-|-2-0--------0--------|
|-4-2-2-2-2--2-4-5---|-0---0-0---9-7-5-|-0-------------------|
|------------------0-|-----------------|---3--3-3-3-3---3-2--|


                                    To Coda
|--------------|-----------------------------|---------------------||
|-5--5------3--|---2---2-----2-----2---2-----|---2---2-------2----o||
|-4--4---2--2--|-4---4---4-----4-----4---4---|-4---4---4-----4-----||
|-5------2--2--|-4---------4-----4---------4-|-4---------4---4-----||
|-4------0--0--|-2---------------------------|-2-----------2------o||
|------0-------|-----------------------------|---------------------||


 Solo
             ~~~                        PM----|       ~
|-7--------------------------------|---------------------|
|-7h8p7----------7-----------------|---------------------|
|-------9-7-(7)--7h9p7-------------|---------------------|
|----------------------9-7-(7)-9p7-|---------------------|
|----------------------------------|-\7-5-4-5-4----------|
|----------------------------------|------------5s7S2-2--|


|-----------------------------|---------12-14-14-14s10-9-7-(7)\-|
|-5-7-8-(8)(8)------10-12s10--|-7-10-12-------------------------|
|-4-6-7-(7)(7)----------------|----------9-11-11-11s=7-6-4-(4)\-|
|-2-4-5h=7p=5---5-5--7--9s=7--|-4--7--9-------------------------|
|-----------------------------|---------------------------------|
|---------------3-3-----------|---------------------------------|


|-------------------------------------------|
|-------------------------------------------|
|-9h11p9s7h9p7s6h7p6s4S9h11p9s7h9p7s6h7p6s4-|
|-------------------------------------------|
|-------------------------------------------|
|-------------------------------------------|


|-10s9-10-10s12s9s12-14-(14)----------------|
|-------------------------------------------|
|--7s6--7--7s=9s7s=9-11-(11)-14-11-14-11\---|
|-------------------------------------------|
|-------------------------------------------|
|-------------------------------------------|


                                            ~~                ~~
|-------------------------------|-----9-10-12-10-9-----------14--|
|-3-5-7h10p8------------12p10---|-/12--------------12--14-15-----|
|-------------------------------|--------------------------------|
|-5-7-9----------9-9s11---------|--/9----------------------------|
|-------------------------------|--------------------------------|
|-3-5-7------7-7-7-7s=9-------7-|--------------------------------|


|-15-14h15p14-------------------17-14h17p14-------------------|
|-------------15-------------15-------------17-15----------17-|
|----------------16-12s14s16----------------------14s16s18----|
|-------------------------------------------------------------|
|-------------------10s12s14----------------------12s14s16----|
|-------------------------------------------------------------|


                                               ~~~~
|-17b19r(17)-17-17-17s14-14-14-14b15r(14)b15r(14)--|
|--------------------------------------------------|
|--------------------------------------------------|
|--------------------------------------------------|
|--------------------------------------------------|
|--------------------------------------------------|


                               Bridge
                             Double Time Feel Q=160
                                 ~~
|-19b21r=(19)--19b22--19b21--||-19---------|------------|-1----|
|----------------------------||-----5------|-(5)--------|-1----|
|----------------------------||-----4------|-(4)--------|-3----|
|----------------------------||--2--2------|-(2)--------|-3----|
|----------------------------||--2--2------|-(2)--------|-1----|
|----------------------------||--0--0------|-(0)--------|------|


|-(1)-----------|-----------|------------|-1----|
|-(1)-----------|----5------|-(5)--------|-1----|
|-(3)-----------|----4------|-(4)--------|-3----|
|-(3)-----------|-2--2------|-(2)--------|-3----|
|-(1)-----------|-2--2------|-(2)--------|-1----|
|----------12\--|-0--0------|-(0)--------|------|


|-(1)--------|-----------|------------|-1--------|-(1)----|
|-(1)--------|----5------|-(5)--------|-1--------|-(1)----|
|-(3)--------|----4------|-(4)--------|-3--------|-(3)----|
|-(3)--------|-2--2------|-(2)--------|-3--------|-(3)----|
|-(1)--------|-2--2------|-(2)--------|-1--------|-(1)----|
|------------|-0--0------|-(0)--------|----------|--------|


  PM------|   PM----|   PM------|   PM----|
|-----------3---------3-----|-----3---------3--3--|
|-----------3---------3-----|-----3---------3--3--|
|---------------------------|---------------0--0--|
|---------------------------|---------------0--0--|
|---------------------------|---------------------|
|-3-3-3-3-3---3-3-3-3---3-3-|-3-3---3-3-3-3-3--3--|


  PM------|   PM----|   PM------|   PM----|
|---------------------------|---------------------|
|---------------------------|---------------------|
|-----------2---------2-----|-----2---------2--2--|
|-----------2---------2-----|-----2---------2--2--|
|-0-0-0-0-0---0-0-0-0---0-0-|-0-0---0-0-0-0-0--0--|
|---------------------------|---------------------|


                                                 3x
||------------|------------|----1------|-(1)-----||
||o----5------|-(5)--------|----1------|-(1)----o||
||-----4------|-(4)--------|-3--3------|-(3)-----||
||--2--2------|-(2)--------|-3--3------|-(3)-----||
||o-2--2------|-(2)--------|-1--1------|-(1)----o||
||--0--0------|-(0)--------|-----------|---------||


  PM------|   PM----|   PM------|   PM----|   PM|   PM|
|-----------3---------3-----|-----3---------------------|
|-----------3---------3-----|-----3---------------------|
|---------------------------|---------------------------|
|---------------------------|---------------5-----5-----|
|---------------------------|---------------5-----5-----|
|-3-3-3-3-3---3-3-3-3---3-3-|-3-3---3-3-3-3-3-3-3-3-3-3-|


  PM------|   PM----|   PM------|   PM----|
|---------------------------|--------------------|
|---------------------------|--------------------|
|-----------2---------2-----|-----2---------2----|
|-----------2---------2-----|-----2---------2----|
|-0-0-0-0-0---0-0-0-0---0-0-|-0-0---0-0-0-0-0----|
|---------------------------|--------------------|


                              Original Feel Q=80
               D.S. al Coda      &
|--------------|--------------||-3----5----|-------------------------------|
|--------------|--------------||-3----5----|---2---2-----2-----2---2-------|
|-2----2-2-2-2-|-2----11-9-7--||-0----2----|-4---4---4-----4-----4---4-----|
|-2----2-2-2-2-|-2----11-9-7--||-0----2----|-4---------4-----4---------4---|
|-0----0-0-0-0-|-0-----9-7-5--||------0----|-2-----------------------------|
|--------------|--------------||-3---------|-------------------------------|


|-3----2----|-^0--------------|-(0)----*|
|-3----2----|-^0--------------|-(0)----*|
|-0----2----|-^6--------------|-(6)----*|
|-0----4----|-^7--------------|-(7)----*|
|------4----|-^7--------------|-(7)----*|
|-3----2----|-^5--------------|-(5)----*|
|
| Gtr I
|-----------|---------------5s|==7-----*|
|-----------|-------------5---|--------*|
|-----------|-----------5-----|--------*|
|-----------|---------9-------|--------*|
|-----------|-------7---------|--------*|
|-----------|-----5-----------|--------*|



Comments