Osbourne Ozzy - Junkie Chords & Tabs

 

Junkie Chords & Tabs

Osbourne Ozzy Chords & Tabs

Version: 1 Type: Tab 1 rating
1 star 2 stars 3 stars 4 stars 5 stars
comments

Junkie Tab

   
   Ozzy Osbourne
Junkie


Gtr I (A E A D G B E) - 'Rhythm guitar'
Gtr II (A E A D G B E) - 'Rhythm guitar'
Gtr III (A E A D G B E) - 'Lead guitar'
Gtr IV (A E A D G B E) - 'Harmony guitar'
Gtr V (A E A D G B E) - 'Harmony guitar'

 Intro
  Moderately Slow Q.=54
  (A7)
 6/8
  Gtr I
          ~~~~~~      ~~~~~~            ~~~~~~
|-----------------------------|---------------------|
|-----------------------------|---------------------|
|-----------------------------|---------------------|
|-----------------------------|---------------------|
|-----------------------------|---------------------|
|-5b7r(5)-5-(5)-5-3h5-5-(5)-3-|-5b7r(5)-5-(5)-5-3---|
|-----------------------------|---------------------|


          ~~~~~~      ~~~~~~            ~~~~~~
|-----------------------------|---------------------|
|-----------------------------|---------------------|
|-----------------------------|---------------------|
|-----------------------------|---------------------|
|-----------------------------|---------------------|
|-5b7r(5)-5-(5)-5-3h5-5-(5)-3-|-5b7r(5)-5-(5)-5-3---|
|-----------------------------|---------------------|


  Gtrs I, II
          ~~~~~~      ~~~~~~            ~~~~~~   ~~~
|-----------------------------|-------------------------------|
|-----------------------------|-------------------------------|
|-----------------------------|-------------------------------|
|-----------------------------|-------------------------------|
|-----------------------------|-------------------------------|
|-5b7r(5)-5-(5)-5-3h5-5-(5)-3-|-5b7r(5)-5-(5)-0-[3]-0-0-[3]-0-|
|-----------------------------|-------------------------------|


          ~~~~~~      ~~~~~~            ~~~~~~   ~~~
|-----------------------------|-------------------------------|
|-----------------------------|-------------------------------|
|-----------------------------|-------------------------------|
|-----------------------------|-------------------------------|
|-----------------------------|-------------------------------|
|-5b7r(5)-5-(5)-5-3h5-5-(5)-3-|-5b7r(5)-5-(5)-0-[3]-0-0-[3]-0-|
|-----------------------------|-------------------------------|


 1st Verse
  (A7)
          ~~~~~~      ~~~~~~            ~~~~~~  ~ PM--|
|-----------------------------|---------------------------|
|-----------------------------|---------------------------|
|-----------------------------|---------------------------|
|-----------------------------|-------------------------0-|
|-----------------------------|---------------------------|
|-5b7r(5)-5-(5)-5-3h5-5-(5)-3-|-5b7r(5)-5-(5)-0-3-0-0-0---|
|-----------------------------|-------------------0-0-0---|


          ~~~~~~      ~~~~~~            ~~~~~~  ~ PM--|
|-----------------------------|---------------------------|
|-----------------------------|---------------------------|
|-----------------------------|---------------------------|
|-----------------------------|-------------------------0-|
|-----------------------------|---------------------------|
|-5b7r(5)-5-(5)-5-3h5-5-(5)-3-|-5b7r(5)-5-(5)-0-3-0-0-0---|
|-----------------------------|-------------------0-0-0---|


          ~~~~~~      ~~~~~~            ~~~~~~   ~~~
|-----------------------------|-------------------------------|
|-----------------------------|-------------------------------|
|-----------------------------|-------------------------------|
|-----------------------------|-------------------------------|
|-----------------------------|-------------------------------|
|-5b7r(5)-5-(5)-5-3h5-5-(5)-3-|-5b7r(5)-5-(5)-0-[3]-0-0-[3]-0-|
|-----------------------------|-------------------------------|


          ~~~~~~      ~~~~~~            ~~~~~~   ~~~
|-----------------------------|-------------------------------|
|-----------------------------|-------------------------------|
|-----------------------------|-------------------------------|
|-----------------------------|-------------------------------|
|-----------------------------|-------------------------------|
|-5b7r(5)-5-(5)-5-3h5-5-(5)-3-|-5b7r(5)-5-(5)-0-[3]-0-0-[3]-0-|
|-----------------------------|-------------------------------|


   Chorus
    C5       Eb5      Db5
||---------|--------|------------------|
||---------|--------|------------------|
||o--------|--------|------------------|
||--5------|-8------|-6--(6)-(6)/------|
||o-3------|-6------|-4--(4)-(4)S16\---|
||---------|--------|------------------|
||---------|--------|------------------|


  C5
      PM--|       PM----|
|--------------------------||--------------------------------||
|--------------------------||--------------------------------||
|-------------------------o||-3h5-3---------3h5-3------------||
|--------------------------||-------5-4-3---------5-4-3------||
|-1h3-------1-1h3---------o||-------------6-------------6----||
|-----1-2-3-------1-2-3-0--||--------------------------------||
|--------------------------||--------------------------------||


 Interlude
  (A7)
          ~~~~~~      ~~~~~~            ~~~~~~   ~~~
|-----------------------------|-------------------------------------|
|-----------------------------|-------------------------------------|
|-----------------------------|-------------------------------------|
|-----------------------------|-------------------------------------|
|-----------------------------|-------------------------------------|
|-5b7r(5)-5-(5)-5-3h5-5-(5)-3-|-5b7r(5)-5-(5)-0-[3]-[0]-[0]-[3]-[0]-|
|-----------------------------|-------------------------------------|


          ~~~~~~      ~~~~~~            ~~~~~~  ~
|-----------------------------|---------------------------||
|-----------------------------|---------------------------||
|-----------------------------|---------------------------||
|-----------------------------|---------------------------||
|-----------------------------|---------------------------||
|-5b7r(5)-5-(5)-5-3h5-5-(5)-3-|-5b7r(5)-5-(5)-0-3-x-x-x-x-||
|-----------------------------|-------------------x-x-x-x-||


 2nd Verse
  (A7)
          ~~~~~~      ~~~~~~            ~~~~~~  ~
|-----------------------------|---------------------------|
|-----------------------------|---------------------------|
|-----------------------------|---------------------------|
|-----------------------------|---------------------------|
|-----------------------------|---------------------------|
|-5b7r(5)-5-(5)-5-3h5-5-(5)-3-|-5b7r(5)-5-(5)-0-3-x-x-x-x-|
|-----------------------------|-------------------x-x-x-x-|


                                                G5
          ~~~~~~      ~~~~~~            ~~~~~~
|-----------------------------|---------------------------|
|-----------------------------|---------------------------|
|-----------------------------|---------------------------|
|-----------------------------|---------------------------|
|-----------------------------|-----------------5---------|
|-5b7r(5)-5-(5)-5-3h5-5-(5)-3-|-5b7r(5)-5-(5)-0-3-x-x-x-x-|
|-----------------------------|-------------------x-x-x-x-|


  (A7)
          ~~~~~~      ~~~~~~            ~~~~~~
|-----------------------------|---------------------------------|
|-----------------------------|---------------------------------|
|-----------------------------|-------------------------------0-|
|-----------------------------|---------------------------------|
|-----------------------------|---------------------------------|
|-5b7r(5)-5-(5)-5-3h5-5-(5)-3-|-5b7r(5)-5-(5)-0-3-[0]-[0]-[0]---|
|-----------------------------|---------------------------------|


                                                G5
          ~~~~~~      ~~~~~~            ~~~~~~
|-----------------------------|-----------------------------------||
|-----------------------------|-----------------------------------||
|-----------------------------|-----------------------------------||
|-----------------------------|-----------------------------------||
|-----------------------------|-----------------5-----------------||
|-5b7r(5)-5-(5)-5-3h5-5-(5)-3-|-5b7r(5)-5-(5)-0-3-[0]-[0]-[0]-[0]-||
|-----------------------------|-----------------------------------||


   Chorus
    C5       Eb5      Db5
||---------|--------|------------------|
||---------|--------|------------------|
||o--------|--------|------------------|
||--5------|-8------|-6--(6)-(6)/------|
||o-3------|-6------|-4--(4)-(4)S16\---|
||---------|--------|------------------|
||---------|--------|------------------|


  C5
      PM--|       PM----|
|--------------------------||--------------------------------|
|--------------------------||--------------------------------|
|-------------------------o||-3h5-3---------3h5-3------------|
|--------------------------||-------5-4-3---------5-4-3------|
|-1h3-------1-1h3---------o||-------------6-------------6----|
|-----1-2-3-------1-2-3-0--||--------------------------------|
|--------------------------||--------------------------------|


 Bridge
  G5                DbC5Bb5 G5                DbC5Bb5
|-----3---|-(3)-----------|-----3---|-(3)-----------|
|-----3---|-(3)-----------|-----3---|-(3)-----------|
|---------|-------5s6s5-3-|---------|-------5s6s5-3-|
|-5-------|-------5s6s5-3-|-5-------|-------5s6s5-3-|
|-5-------|---------------|-5-------|---------------|
|---------|---------------|---------|---------------|
|---------|---------------|---------|---------------|


  G5                 Db5 C5  Bb5   G5                DbC5Bb5
                      ~~~~~~~~~~~
|-----3---|-(3)------------------|-----3---|-(3)-----------||
|-----3---|-(3)------------------|-----3---|-(3)-----------||
|---------|----------------------|---------|-------5s6s5-3-||
|-5-------|------x-x-------------|-5-------|-------5s6s5-3-||
|-5-------|------x-x-[4]-[3]-[1]-|-5-------|---------------||
|---------|----------------------|---------|---------------||
|---------|----------------------|---------|---------------||


  (A7)                        N.C.            (A7)
  Gtr III
                                <
|---------------------------|---------------|-------------------------------|
|---------------------------|---------------|-------------------------------|
|---------------------------|---------------|-------------------------------|
|---------------------------|---------------|-------------------------------|
|---------------------------|--[0]--([0])---|-------------------------------|
|---------------------------|---------------|-------------------------------|
|---------------------------|---------------|-------------------------------|
|
| Gtrs I, II
|         ~~~~~~      ~~~~~~                          ~~~~~~       ~~~~~~~~~
|---------------------------|---------------|-------------------------------|
|---------------------------|---------------|-------------------------------|
|---------------------------|---------------|-------------------------------|
|---------------------------|---------------|-------------------------------|
|---------------------------|---------------|-------------------------------|
|-5b7r(5)-5-(5)-5-3h5-5-(5)-|---------------|-5b7r(5)-5-(5)-5-3h5-[5]-([5])-|
|---------------------------|---------------|-------------------------------|


  N.C.
                                                         ~~
|----------21-17-21----17----------------------------------||
|-17-20-17----------20----20-21-17-20-17-------------------||
|----------------------------------------19-19-19-19-19-19-||
|----------------------------------------------------------||
|----------------------------------------------------------||
|----------------------------------------------------------||
|----------------------------------------------------------||
|
|----------------------------------------------------------||
|----------------------------------------------------------||
|----------------------------------------------------------||
|----------------------------------------------------------||
|----------------------------------------------------------||
|----------------------------------------------------------||
|----------------------------------------------------------||


    (A7)
||------------------------------|----------------------||
||------------------------------|----------------------||
||o-----------------------------|---------------------o||
||------------------------------|----------------------||
||o-----------------------------|---------------------o||
||------------------------------|----------------------||
||------------------------------|----------------------||
|
|           ~~~~~~      ~~~~~~            ~~~~~~  ~
||------------------------------|----------------------||
||------------------------------|----------------------||
||o-----------------------------|---------------------o||
||------------------------------|----------------------||
||o-----------------------------|---------------------o||
||--5b7r(5)-5-(5)-5-3h5-5-(5)-3-|-5b7r(5)-5-(5)-5-3----||
||------------------------------|----------------------||


 Guitar Solo
  E5                                  C5
   TP  TP TP  TP  TP TP TP  TP   TP        TP  TP
|-[5]--5-[5]--5--[5]-5-[5]--5---[5]-|-/8-8-8---8---------|
|-----------------------------------|--------------------|
|-----------------------------------|--------------------|
|-----------------------------------|--------------------|
|-----------------------------------|--------------------|
|-----------------------------------|--------------------|
|-----------------------------------|--------------------|
|
|-----------------------------------|--------------------|
|-----------------------------------|--------------------|
|-----------------------------------|--------------------|
|--9---------(9)-----------(9)\-----|--5------(5)--(5)\--|
|--7---------(7)-----------(7)\-----|--3------(3)--(3)\--|
|-----------------------------------|--------------------|
|-----------------------------------|--------------------|


  Amadd9+5/F
                                                         TP
|-10-10-10-10-10-12-12-14-15-20-20-19-20-18-19-20----17-19-|
|-------------------------------------------------20-------|
|----------------------------------------------------------|
|----------------------------------------------------------|
|----------------------------------------------------------|
|----------------------------------------------------------|
|----------------------------------------------------------|
|
|----------------------------------------------------------|
|--0-------------------------------------------------------|
|--2-------------------------------------------------------|
|--3-------------------------------------------------------|
|--3-------------------------------------------------------|
|--1-------------------------------------------------------|
|----------------------------------------------------------|


   TP  TP TP TP TP TP TP TP ~~~~~
|-19--20-17-19-20-17-19-17----------|
|--------------------------20b22----|
|-----------------------------------|
|-----------------------------------|
|-----------------------------------|
|-----------------------------------|
|-----------------------------------|
|
|-----------------------------------|
|-(0)----------------------(0)------|
|-(2)----------------------(2)------|
|-(3)----------------------(3)------|
|-(3)----------------------(3)------|
|-(1)----------------------(1)----0-|
|-----------------------------------|


  E5                     C5
|-12--------------11---|-10---------9--8---------7----|
|----11--------10------|----9-----8-------7------6----|
|-------10--9----------|------8-7-----------6-5-------|
|----------------------|------------------------------|
|----------------------|------------------------------|
|----------------------|------------------------------|
|----------------------|------------------------------|
|
|----------------------|------------------------------|
|----------------------|------------------------------|
|----------------------|------------------------------|
|--9-------(9)----(9)\-|--5-----------(5)-------(5)\--|
|--7-------(7)----(7)\-|--3-----------(3)-------(3)\--|
|----------------------|------------------------------|
|----------------------|------------------------------|


  Amadd9+5/F
  \2.5                          \0.5___/
|------------|-------------------------------------|
|-8tr11------|-(8tr11)-----------------------------|
|------------|---------------3-(3)----(3)-(3)/---0-|
|------------|-------------------------------------|
|------------|-------------------------------------|
|------------|---------0-(0)-----------------------|
|------------|-------------------------------------|
|
|------------|-------------------------------------|
|-0----------|-(0)-------------(0)-----------------|
|-2----------|-(2)-------------(2)-----------------|
|-3----------|-(3)-------------(3)-----------------|
|-3----------|-(3)-------------(3)-----------------|
|-1----------|-(1)-------------(1)-------------0---|
|------------|-------------------------------------|

[ Tab from: http://www.guitartabs.cc/tabs/o/osbourne_ozzy/junkie_tab.html ]
  E5
|--9-------9-------9-------9-------9-------9-------9--------9-------9-------9-------9------|
|-12b13.5-12b13.5-12b13.5-12b13.5-12b13.5-12b13.5-12b13.5--12b13.5-12b13.5-12b13.5-12b13.5-|
|------------------------------------------------------------------------------------------|
|------------------------------------------------------------------------------------------|
|------------------------------------------------------------------------------------------|
|------------------------------------------------------------------------------------------|
|------------------------------------------------------------------------------------------|
|
|------------------------------------------------------------------------------------------|
|------------------------------------------------------------------------------------------|
|------------------------------------------------------------------------------------------|
|--9----------------------------------------------(9)----------------------(9)\------------|
|--7----------------------------------------------(7)----------------------(7)\------------|
|------------------------------------------------------------------------------------------|
|------------------------------------------------------------------------------------------|


  C5
|--9-------9-------9-------9-------9-------9-------9--------9-------9-------9-------9------|
|-12b13.5-12b13.5-12b13.5-12b13.5-12b13.5-12b13.5-12b13.5--12b13.5-12b13.5-12b13.5-12b13.5-|
|------------------------------------------------------------------------------------------|
|------------------------------------------------------------------------------------------|
|------------------------------------------------------------------------------------------|
|------------------------------------------------------------------------------------------|
|------------------------------------------------------------------------------------------|
|
|------------------------------------------------------------------------------------------|
|------------------------------------------------------------------------------------------|
|------------------------------------------------------------------------------------------|
|--5----------------------------------------------(5)----------------------(5)\------------|
|--3----------------------------------------------(3)----------------------(3)\------------|
|------------------------------------------------------------------------------------------|
|------------------------------------------------------------------------------------------|


  Amadd9+5/F
|--9-------9-------9-------9-------9-------9-------9--------9-------9-------9-------9------|
|-12b13.5-12b13.5-12b13.5-12b13.5-12b13.5-12b13.5-12b13.5--12b13.5-12b13.5-12b13.5-12b13.5-|
|------------------------------------------------------------------------------------------|
|------------------------------------------------------------------------------------------|
|------------------------------------------------------------------------------------------|
|------------------------------------------------------------------------------------------|
|------------------------------------------------------------------------------------------|
|
|------------------------------------------------------------------------------------------|
|--0---------------------------------------------------------------------------------------|
|--2---------------------------------------------------------------------------------------|
|--3---------------------------------------------------------------------------------------|
|--3---------------------------------------------------------------------------------------|
|--1---------------------------------------------------------------------------------------|
|------------------------------------------------------------------------------------------|


|--9-------9-------9-------9-------9-------9-------9-------9-------9-------9--------|
|-12b13.5-12b13.5-12b13.5-12b13.5-12b13.5-12b13.5-12b13.5-12b13.5-12b13.5-12b13.5---|
|-----------------------------------------------------------------------------------|
|-----------------------------------------------------------------------------------|
|-----------------------------------------------------------------------------------|
|-----------------------------------------------------------------------------------|
|-----------------------------------------------------------------------------------|
|
|-----------------------------------------------------------------------------------|
|-(0)---------------------------------------------(0)-------------------------------|
|-(2)---------------------------------------------(2)-------------------------------|
|-(3)---------------------------------------------(3)-------------------------------|
|-(3)---------------------------------------------(3)-------------------------------|
|-(1)---------------------------------------------(1)-----------------------------0-|
|-----------------------------------------------------------------------------------|


  E5                 C5
  Gtr IV
|------------------|-------------------|
|-5b6--------------|-5b6r=(5)----------|
|------------------|-------------------|
|--------5b6r=(5)--|----------5b6r=(5)-|
|------------------|-------------------|
|------------------|-------------------|
|------------------|-------------------|
|
| Gtr V
|------------------|-------------------|
|------------------|-------------------|
|------------------|-------------------|
|-7b8--------------|-7b8r=(7)----------|
|--------5b6r=(5)--|----------5b6r=(5)-|
|------------------|-------------------|
|------------------|-------------------|
|
| Gtrs I, II
|------------------|-------------------|
|------------------|-------------------|
|------------------|-------------------|
|-9-----(9)---(9)\-|-5-----------------|
|-7-----(7)---(7)\-|-3-----------------|
|------------------|-------------------|
|------------------|-------------------|


  D5
                                ~~~~~
|-------------------|------------------------|
|-5b6r=(5)-5b6r=(5)-|-5pb6r=(5)-5pb6===(5)r\-|
|-------------------|------------------------|
|-------------------|------------------------|
|-------------------|------------------------|
|-------------------|------------------------|
|-------------------|------------------------|
|
|-------------------|------------------------|
|-------------------|------------------------|
|-------------------|------------------------|
|-7b8r=(7)-7b8r=(7)-|-7b8r==(7)-7b9====(7)r\-|
|-------------------|------------------------|
|-------------------|------------------------|
|-------------------|------------------------|
|
|-------------------|------------------------|
|-------------------|------------------------|
|-------------------|------------------------|
|-7--------7--------|-7---------7------------|
|-5--------5--------|-5---------5------------|
|-------------------|------------------------|
|-------------------|------------------------|


  (A7)
  Gtr III
|---------------------------------------------------------------------|
|------------------------------------------------------------------11-|
|----------------------------------10------------------10--9--12------|
|----------------------10--9--12-------------10-9-12------------------|
|------------10-9-12------------------9-12----------------------------|
|-9---12--------------------------------------------------------------|
|---------------------------------------------------------------------|
|
| Gtrs I, II
|                    ~~~~~~~~~                       ~~~~~~~~~
|---------------------------------------------------------------------|
|---------------------------------------------------------------------|
|---------------------------------------------------------------------|
|---------------------------------------------------------------------|
|---------------------------------------------------------------------|
|-5b7r===(5)---------5----(5)----5----3h===5---------5----(5)----3----|
|---------------------------------------------------------------------|


|----------------------------------10------------------10-----12---15-|
|----------------------11--9--12-------------11-9-12------14----------|
|------------10-9-12------------------9-12----------------------------|
|-9---12--------------------------------------------------------------|
|---------------------------------------------------------------------|
|---------------------------------------------------------------------|
|---------------------------------------------------------------------|
|
|                    ~~~~~~~~~                       ~~~~~~~~~
|---------------------------------------------------------------------|
|---------------------------------------------------------------------|
|---------------------------------------------------------------------|
|---------------------------------------------------------------------|
|---------------------------------------------------------------------|
|-5b7r===(5)---------5----(5)----5----3h===5---------5----(5)----3----|
|---------------------------------------------------------------------|


|----------------12h15--------------12h15-------------12h15--------------12h15-|
|------12h15p=14----------12h15p=14----------12h15p14----------12h15p=14-------|
|-13-------------------13-----------------13----------------13-----------------|
|------------------------------------------------------------------------------|
|------------------------------------------------------------------------------|
|------------------------------------------------------------------------------|
|------------------------------------------------------------------------------|
|
|                       ~~~~~~~~~                            ~~~~~~~~~
|------------------------------------------------------------------------------|
|------------------------------------------------------------------------------|
|------------------------------------------------------------------------------|
|------------------------------------------------------------------------------|
|------------------------------------------------------------------------------|
|--5b7r===(5)-----------5----(5)-----5-----3h====5-----------5----(5)-----3----|
|------------------------------------------------------------------------------|


|----------------12h15--------------12h15-(15)/------||
|------12h15p=14----------12h15p=14------------------||
|-13-------------------13----------------------------||
|----------------------------------------------------||
|----------------------------------------------------||
|----------------------------------------------------||
|----------------------------------------------------||
|
|                       ~~~~~~~~~
|----------------------------------------------------||
|----------------------------------------------------||
|----------------------------------------------------||
|----------------------------------------------------||
|----------------------------------------------------||
|--5b7r===(5)-----------5----(5)-----5------3--------||
|----------------------------------------------------||


 3rd Verse
  (A7)
  Gtrs I, II
          ~~~~~~      ~~~~~~            ~~~~~~  ~
|-----------------------------|---------------------------|
|-----------------------------|---------------------------|
|-----------------------------|---------------------------|
|-----------------------------|---------------------------|
|-----------------------------|---------------------------|
|-5b7r(5)-5-(5)-5-3h5-5-(5)-3-|-5b7r(5)-5-(5)-0-3-x-x-x-x-|
|-----------------------------|-------------------x-x-x-x-|


                                                G5
          ~~~~~~      ~~~~~~            ~~~~~~
|-----------------------------|---------------------------|
|-----------------------------|---------------------------|
|-----------------------------|---------------------------|
|-----------------------------|---------------------------|
|-----------------------------|-----------------5---------|
|-5b7r(5)-5-(5)-5-3h5-5-(5)-3-|-5b7r(5)-5-(5)-0-3-x-x-x-x-|
|-----------------------------|-------------------x-x-x-x-|


  (A7)
          ~~~~~~      ~~~~~~            ~~~~~~  ~
|-----------------------------|---------------------------|
|-----------------------------|---------------------------|
|-----------------------------|---------------------------|
|-----------------------------|---------------------------|
|-----------------------------|---------------------------|
|-5b7r(5)-5-(5)-5-3h5-5-(5)-3-|-5b7r(5)-5-(5)-0-3-x-x-x-x-|
|-----------------------------|-------------------x-x-x-x-|


                                                G5
          ~~~~~~      ~~~~~~            ~~~~~~
|-----------------------------|-----------------------------------|
|-----------------------------|-----------------------------------|
|-----------------------------|-----------------------------------|
|-----------------------------|-----------------------------------|
|-----------------------------|-----------------5-----------------|
|-5b7r(5)-5-(5)-5-3h5-5-(5)-3-|-5b7r(5)-5-(5)-0-3-[0]-[0]-[0]-[0]-|
|-----------------------------|-----------------------------------|


   Chorus
    C5       Eb5      Db5
||---------|--------|------------------|
||---------|--------|------------------|
||o--------|--------|------------------|
||--5------|-8------|-6--(6)-(6)/------|
||o-3------|-6------|-4--(4)-(4)S16\---|
||---------|--------|------------------|
||---------|--------|------------------|


  C5
      PM--|       PM----|
|--------------------------||--------------------------------|
|--------------------------||--------------------------------|
|-------------------------o||-3h5-3---------3h5-3------------|
|--------------------------||-------5-4-3---------5-4-3------|
|-1h3-------1-1h3---------o||-------------6-------------6----|
|-----1-2-3-------1-2-3-0--||--------------------------------|
|--------------------------||--------------------------------|


   Outro
    N.C.
   4/4
           ~~                                 ~~                     PM|
                                                                          4x
||-----------------------------------|------------------------------------||
||-----------------------------------|------------------------------------||
||o----------------------------------|-----------------------------------o||
||-----------------------------------|------------------------------------||
||o----------------------------------|-----------------------------------o||
||-----------------------------------|------------------------------------||
||--10h12-10--10h12-10-0-3b3.5-0-0-0-|-10h12-10--10h12-0-5b6r(5)-3-0-0-0--||


  Gtr III
         ~~
|------------------------------------|
|--8h10--8---8h10--8-----------------|
|--------------------9-----------x-x-|
|----------------------10b10.5-7-x-x-|
|------------------------------------|
|------------------------------------|
|------------------------------------|
|
| Gtrs I, II
|        ~~
|------------------------------------|
|------------------------------------|
|------------------------------------|
|------------------------------------|
|------------------------------------|
|------------------------------------|
|-10h12-10--10h12-10-0--3b3.5--0-0-0-|


         ~~                         ~~~             ~~
|------------------------------------------|-------------------------------------|
|--8h10--8---8h10-8-----------8b10-(8)-----|--8h10--8---8h10--8------------------|
|-------------------9----------------------|--------------------9-----------x-x--|
|-----------------------10-----------------|----------------------10b10.5-7-x-x--|
|------------------------------------------|-------------------------------------|
|------------------------------------------|-------------------------------------|
|------------------------------------------|-------------------------------------|
|
|        ~~                            PM|          ~~
|------------------------------------------|-------------------------------------|
|------------------------------------------|-------------------------------------|
|------------------------------------------|-------------------------------------|
|------------------------------------------|-------------------------------------|
|------------------------------------------|-------------------------------------|
|------------------------------------------|-------------------------------------|
|-10h12-10--10h12-0-5b6r(5)-3-0--------0-0-|-10h12-10--10h12-10-0--3b3.5--0-0-0--|


         ~~                         ~~~
|------------------------------------------||
|--8h10--8---8h10-8-----------8b10-(8)-----||
|-------------------9----------------------||
|-----------------------10-----------------||
|------------------------------------------||
|------------------------------------------||
|------------------------------------------||
|
|        ~~                            PM|
|------------------------------------------||
|------------------------------------------||
|------------------------------------------||
|------------------------------------------||
|------------------------------------------||
|------------------------------------------||
|-10h12-10--10h12-0-5b6r(5)-3-0--------0-0-||


  (A7)
 6/8
|-----------------------------|---------------------*|
|-----------------------------|---------------------*|
|-----------------------------|---------------------*|
|-----------------------------|---------------------*|
|-----------------------------|---------------------*|
|-----------------------------|---------------------*|
|-----------------------------|---------------------*|
|
|         ~~~~~~      ~~~~~~            ~~~~~~
|-----------------------------|---------------------*|
|-----------------------------|---------------------*|
|-----------------------------|---------------------*|
|-----------------------------|---------------------*|
|-----------------------------|---------------------*|
|-5b7r(5)-5-(5)-5-3h5-5-(5)-3-|-5b7r(5)-5-(5)-5-3---*|
|-----------------------------|---------------------*|



Comments