Osbourne Ozzy - Iron Man Live Chords & Tabs

 

Iron Man Live Chords & Tabs

Osbourne Ozzy Chords & Tabs

Version: 1 Type: Tab 6 ratings
1 star 2 stars 3 stars 4 stars 5 stars
comments

Iron Man Live Tab

   
This is Iron Man (Live) by Ozzy Osbourne from the "Tribute Album"

RIFF A:
E:----------------------------------------------------
B:----------------------------------------------------
G:----------------------------------------------------
D:-5--8--8-10-10-13--12--13--12--13--12--8--8--10-10-- 
A:-3--6--6-8--8--11--10--11--10--11--10--6--6--8--8---
E:----------------------------------------------------
[ Tab from: http://www.guitartabs.cc/tabs/o/osbourne_ozzy/iron_man_live_tab.html ]
RIFF B:
E:-----------------------------
B:-----------------------------
G:-----------------------------
D:------1----------------------
A:--3-3---3-2-1-1-1---0-1-1-2--
E:------------------1----------

RIFF C:
E:-----------------------------
B:-----------------------------
G:-----------------------3-4-5-
D:--10-8--5-5-----3-3-4-5------ 
A:--8--6--3-3-3-5-------------- 
E:-----------------------------

RIFF D:
E:------------------------------
B:------------------------------
G:--7-5-------------------------
D:------7-6-5-3----------------- 
A:--------------3-3-5----------- 
E:------------------------------

Order:
Riff A - 6x's
Riff B - 3x's
Riff A - 2x's
Riff C - 2x's
Riff A - 2x's
Riff C - 2x's
Riff D - 1x

There ya go- Good Luck!


Comments