Osbourne Ozzy - Goodbye To Romance Chords & Tabs

 

Goodbye To Romance Chords & Tabs

Osbourne Ozzy Chords & Tabs

Version: 1 Type: Tab 1 rating
1 star 2 stars 3 stars 4 stars 5 stars
comments

Goodbye To Romance Tab

   
This is my first tab so i hope its ok
This is the amazing solo by Randy Rhoads for Goodbye to romance from Ozzys 
first album Blizzard of oz. If you need any help just email me.
I share the same name but i am no relation or 
even his talent. 


                                    p                  h    p
|-------------------|------s-----15---14-12---|-----14---15---14-----14-------p------bu--14----|
|-----------h-------|----7---10---------------|---x---------------17----17-15---14-17(19)---17-|
|----h----7---9-----|-7-----------------------|-x----------------------------------------------|
|--7---9------------|-------------------------|------------------------------------------------|
|-------------------|-------------------------|------------------------------------------------|
|-------------------|-------------------------|------------------------------------------------|

             p  p           p  p           p  h     h  p  h  h     h  p  h  p  h     h  p  h
|-14-15--|-17-15-14----14----------------------------------------14-15-14-15-14-15-15-17-15-17-|
|--------|----------17----17-15-14----14----------14-15-14-15-17-------------------------------|
|--------|-------------------------16----16-14-16----------------------------------------------|
|--------|-------------------------------------------------------------------------------------|
|--------|-------------------------------------------------------------------------------------|
|--------|-------------------------------------------------------------------------------------|
[ Tab from: http://www.guitartabs.cc/tabs/o/osbourne_ozzy/goodbye_to_romance_tab.html ]
    h  p  h     h  p  h       bu bd  p     p         bu  bd                               
|-17-19-17-19-19-21-19-21-|-21(22)(21)19-21-19--19-21(22)(21)-|--------7---p---p---------------|
|-------------------------|-------------------22--------------|--bu--7---10-7-8-7--bu--7-------|
|-------------------------|-----------------------------------|-9(11)-------------9(11)--9~~~--|
|-------------------------|-----------------------------------|--------------------------------|
|-------------------------|-----------------------------------|--------------------------------|
|-------------------------|-----------------------------------|--------------------------------|

   bu bd   p                |....pm...|
|-9(10)(9)---7---7----p---------------------|-9-10-7-9----7----------------------|
|-------------10--10-8-7---7-----------7~~~-|----------10---8-10-7-8---7---------|
|------------------------9---9-7-6-7-9------|------------------------9---7-9-6-7-|
|-------------------------------------------|------------------------------------|
|-------------------------------------------|------------------------------------|
|-------------------------------------------|------------------------------------|

|---------------------10-12-14-14-15-17-15-14----|-14--\-------------------------|
|------------10-12-14-------------------------17-|-15--\-------------------------|
|-9~~~-11~~~-------------------------------------|-------------------------------|
|------------------------------------------------|-------------------------------|
|------------------------------------------------|-------------------------------|
|------------------------------------------------|-------------------------------|


P pull off
h hammer on
~~ Vibrato
\ slide down the neck
|...pm...| palm mute
x Rake 

This is the intro which is repaeated later but slightly different 
if you have truoble just email me and ill do more. 

             h   p   p
|------0--|-2-3-2-0-2-0-----0--|---0---p--------------0----|
|--3------|--------------3-----|-3---2---0---2-----3-------|
|---------|--------------------|----------------0----------|
|---------|--------------------|---------------------------|
|---------|--------------------|---------------------------|
|---------|--------------------|---------------------------|

The verse chords are
  Dmaj7 F#m7 G A x2

Chorus 
  D A/C# Bm A G Asus4 A x2

Bridge
  Em A D Em7 A D

If you need the correct picking send me an email and ill do it all..

Randy Rhoads
polo_man_2001@hotmail.com





Comments