Osbourne Ozzy - Gets Me Through Chords & Tabs

 

Gets Me Through Chords & Tabs

Osbourne Ozzy Chords & Tabs

Version: 2 Type: Tab 0 ratings
1 star 2 stars 3 stars 4 stars 5 stars
comments

Gets Me Through Tab

From - David Rojas


Get's Me Through
Ozzy Osbourn

[ Tab from: http://www.guitartabs.cc/tabs/o/osbourne_ozzy/gets_me_through_tab_ver_2.html ]
Verse 1:
e-------------------------------------------------------
B-------------------------------------------------------
G-------------------------------------------------------
D--2-2--2-4^-2----2-4^-2--2-2-2-4^-2-2-2-----0h2--------
A--2-2--2-4^-2----2-4^-2--2-2-2-4^-2-2-2-0h2------------
E--0-0--0-2^-0----0-2^-0--0-0-0-2^-0-0-0----------------

Verse 2 (played in backround):
e-------------------------------------------------------
B-------------------------------------------------------
G-------------------------------------------------------
D--2-2--2-5-2----2-5-2--2-2-2-5-2-2-5-------------------
A--2-2--2-5-2----2-5-2--2-2-2-5-2-2-5-------------------
E--0-0--0-3-0----0-3-0--0-0-0-3-0-0-3~~~~---------------

Listen to the song to get it right.
Comments