Osbourne Ozzy - Dreamer Solo Chords & Tabs

 

Dreamer Solo Chords & Tabs

Osbourne Ozzy Chords & Tabs

Version: 3 Type: Tab 0 ratings
1 star 2 stars 3 stars 4 stars 5 stars
comments

Dreamer Solo Tab

Band:  Ozzy Osborne
Song:  Dreamer (solo)
Tuning: Standard (EADGBE)
Tabbed By: Kevin Zmetra





  |-----------------------------------------------------------------------------6--------------------------|
  |-----------------------------------------------------------------7---9------------4-h-6---6-p-4-----|
  |-------6--8-8b(10)r--6--8--------------------6--8-/-10-------------------------------------6----|
  |--\6----------------------------6-h-8---/---\6--------------------------------------------------------|
  |--------------------------------------------------------------------------------------------------------|
  |--------------------------------------------------------------------------------------------------------|

					      |-------Bend to match pitch (E 13th)------|
[ Tab from: http://www.guitartabs.cc/tabs/o/osbourne_ozzy/dreamer_solo_tab_ver_3.html ]
  |------------9---11--13---14--16---18--------13-----------13--------13---------13---------------|
  |------/9-----------------------------------------16------------16--------16---------16--------------|
  |--------------------------------------------------------------------------------------------------------|
  |--------------------------------------------------------------------------------------------------------|
  |--------------------------------------------------------------------------------------------------------|
  |--------------------------------------------------------------------------------------------------------|


  |---------------------------------------------------------------------------------------------------------|
  |---------------------11---b-(13)----11---b---(13)-r-11-p9-----------------------------------------|
  |---13--p--11-13--------------------------------------------------------------------------------------|
  |--------------------------------------------------------------------------------11-h-13---13-h-15---|
  |--------------------------------------------------------------------13-h-15---------------------------|
  |---------------------------------------------------------------------------------------------------------|

					
  |------------------------------------------------------------------P------------------------------------|
  |--------------------------11-h-13---14-h-16--16-/-18-------I------F-------18~~~~~~~~~-----|
  |-11-h--13---13-h-15-----------------------------------------A------I------------------------------|
  |-----------------------------------------------------------------N------L-----------------------------|
  |-----------------------------------------------------------------O------L-----------------------------|
  |--------------------------------------------------------------------------------------------------------|




Comments