Osbourne Ozzy - Denial Chords & Tabs

 

Denial Chords & Tabs

Osbourne Ozzy Chords & Tabs

Version: 1 Type: Tab 0 ratings
1 star 2 stars 3 stars 4 stars 5 stars
comments

Denial Tab

   
 Ozzy Osbourne
Denial

            (C)     (C/Bb)    (C/A)                        (C)     (C/Bb)
 4/4
  Gtrs I, II
|---------|-----------------|----------------------------|-----------------|
|---------|-----------------|----------------------------|-----------------|
|---------|-----0-------0---|-----0-------3b5==(3)r(3)---|-----0-------0---|
|---------|---2---2---2---2-|---2---2---1--------------3-|---2---2---2---2-|
|---------|-3-------1-------|-0-------0------------------|-3-------1-------|
|---------|-----------------|----------------------------|-----------------|


  (C/A)   (G5)(G/F) (Em)    (C/E)         (Em6)         (C/E)
  Gtr I
              ~
|-----------------|---------------------|------------------------||
|-----------------|---------------------|------------------------||
|-----0-----0---0-|-----0-----------0---|----------0----------0--||
|---2---2---------|-------2-------2---2-|-------2-------5-4-5----||
|-0---------------|---2------2s=3-------|--3s=4-------4-3-3-3----||
|---------3---1---|-0-------------------|------------------------||
|
| Gtr II
|             ~
|-----------------|---------------------|------------------------||
|-----------------|---------------------|------------------------||
|-----0-----0---0-|---------------------|---------------------0--||
|---2---2---------|---------------------|---------------5-4-5----||
|-0---------------|---2-----(2)---------|-(2)s4---(4)---3-3-3----||
|---------3---1---|-0-------------------|------------------------||


 Verse
  (Em)    (C/E)       (Em6)     (C/E)     (Em)    (C/E)
  Gtrs I, II
|-------------------|-------------------|-------------------|
|-------------------|-------------------|-------------------|
|-----0---------0---|-------0---------0-|-----0---------0---|
|-------2-----2---2-|-----2-----5-4-5---|-------2-----2---2-|
|---2-----2s3-------|-3s4-----4-3-3-3---|---2-----2s3-------|
|-0-----------------|-------------------|-0-----------------|


  (Em6)     (C/E)     Cmaj7                  F#7add4/C
|-------------------|----------------------|-----------0-------------||
|-------------------|-0----0-------0-------|-----0-------0-----0-----||
|-------0---------0-|-0------0-------0-----|---3---3-------3-----3---||
|-----2-----5-4-5---|-2--------2-------2---|---------4-------------4-||
|-3s4-----4-3-3-3---|-3----------3-------3-|-3---------------3-------||
|-------------------|----------------------|-------------------------||


 Verse
  (Em)    (C/E)       (Em6)     (C/E)     (Em)    (C/E)
  Gtrs I, II
|-------------------|-------------------|-------------------|
|-------------------|-------------------|-------------------|
|-----0---------0---|-------0---------0-|-----0---------0---|
|-------2-----2---2-|-----2-----5-4-5---|-------2-----2---2-|
|---2-----2s3-------|-3s4-----4-3-3-3---|---2-----2s3-------|
|-0-----------------|-------------------|-0-----------------|


  (Em6)     (C/E)     Cmaj7                  F#7add4/C
|-------------------|----------------------|-----------0---------------||
|-------------------|-0----0-------0-------|-----0-------0-------------||
|-------0---------0-|-0------0-------0-----|---3---3-------3-----------||
|-----2-----5-4-5---|-2--------2-------2---|---------4-----------------||
|-3s4-----4-3-3-3---|-3----------3-------3-|-3---------------3s=21s=x--||
|-------------------|----------------------|---------------------------||
|
| Gtr III
|-------------------|----------------------|---------------------------||
|-------------------|----------------------|---------------------------||
|-------------------|----------------------|---------------------------||
|-------------------|----------------------|---------------------------||
|-------------------|----------------------|-------------------/21\----||
|-------------------|----------------------|---------------------------||


 Chorus
  A5
  Gtr III
  PM|          ~~~PM|          ~~~         ~~~
|---------------------------------------------|
|-----[8]-[7]---------[8]-[7]-----[8]-[7]-----|
|-------------[5]-------------[5]---------[5]-|
|-2-2-------------2-2-------------------------|
|-0-0-------------0-0-------------------------|
|---------------------------------------------|
|
| Gtrs IV, V
| PM|             PM|
|---------------------------------------------|
|---------------------------------------------|
|---------------------------------------------|
|-2-2-------------2-2-------------------------|
|-0-0-------------0-0-------------------------|
|---------------------------------------------|


  E5
  PM|          ~~~
|-----------------------------------------------------------------|
|-----[8]-[7]-----------------------------------------------------|
|-------------[4]-[4]-[5]-[4]h[5]p[4]-----[4]---------------------|
|-------------------------------------[7]-----[5]-[7]-[4]-[5]-----|
|-2-2---------------------------------------------------------[7]-|
|-0-0-------------------------------------------------------------|
|
| PM|
|-----------------------------------------------------------------|
|-----------------------------------------------------------------|
|-----------------------------------------------------------------|
|-----------------------------------------------------------------|
|-2-2-------------------------------------------------------------|
|-0-0-------------------------------------------------------------|


  A5
  PM|          ~~~PM|          ~~~         ~~~
|---------------------------------------------|
|-----[8]-[7]---------[8]-[7]-----[8]-[7]-----|
|-------------[5]-------------[5]---------[5]-|
|-2-2-------------2-2-------------------------|
|-0-0-------------0-0-------------------------|
|---------------------------------------------|
|
| PM|             PM|
|---------------------------------------------|
|---------------------------------------------|
|---------------------------------------------|
|-2-2-------------2-2-------------------------|
|-0-0-------------0-0-------------------------|
|---------------------------------------------|


  E5
  PM|          ~~~
|-----------------------------------------------------------------|
|-----[8]-[7]-----------------------------------------------------|
|-------------[4]-[4]-[5]-[4]h[5]p[4]-----[4]---------------------|
|-------------------------------------[7]-----[5]-[7]-[4]-[5]-----|
|-2-2---------------------------------------------------------[7]-|
|-0-0-------------------------------------------------------------|
|
| PM|
|-----------------------------------------------------------------|
|-----------------------------------------------------------------|
|-----------------------------------------------------------------|
|-----------------------------------------------------------------|
|-2-2-------------------------------------------------------------|
|-0-0-------------------------------------------------------------|


  C                 (C/Bb)  (C/A)
  Gtr I
|-----------------|----------------|
|-----------------|----------------|
|-----0-------0---|-----0----------|
|---2---2---2---2-|---2---2--------|
|-3-------3-------|-1-------0------|
|-----------------|------------3-2-|
|
| Gtr II
|-----------------|----------------|
|-----------------|----------------|
|-----0-------0---|-----0----------|
|---2---2---2---2-|---2---2--------|
|-3-------3-------|-1-------0------|
|-----------------|------------3-2-|


  (Em)    (C/E)         (Em6)         (C/E)
|---------------------|-------------------------||
|---------------------|-------------------------||
|-----0-----------0---|----------0--------2-0---||
|-------2-------2---2-|-------2-------5-4-------||
|---2------2s=3-------|--3s=4-------4-3-3-3-----||
|-0-------------------|-------------------------||
|
|---------------------|-------------------------||
|---------------------|-------------------------||
|---------------------|---------------------0---||
|---------------------|---------------5-4-5-----||
|---2-----(2)---------|-(2)s4---(4)---3-3-3-----||
|-0-------------------|-------------------------||


 Verse
  (Em)    (C/E)       (Em6)     (C/E)     (Em)    (C/E)
  Gtrs I, II
|-------------------|-------------------|-------------------|
|-------------------|-------------------|-------------------|
|-----0---------0---|-------0---------0-|-----0---------0---|
|-------2-----2---2-|-----2-----5-4-5---|-------2-----2---2-|
|---2-----2s3-------|-3s4-----4-3-3-3---|---2-----2s3-------|
|-0-----------------|-------------------|-0-----------------|


  (Em6)     (C/E)     Cmaj7                  F#7add4/C
|-------------------|----------------------|-----------0---------------||
|-------------------|-0----0-------0-------|-----0-------0-------------||
|-------0---------0-|-0------0-------0-----|---3---3-------3-----------||
|-----2-----5-4-5---|-2--------2-------2---|---------4-----------------||
|-3s4-----4-3-3-3---|-3----------3-------3-|-3---------------3s=21s=x--||
|-------------------|----------------------|---------------------------||
|
| Gtr III
|-------------------|----------------------|---------------------------||
|-------------------|----------------------|---------------------------||
|-------------------|----------------------|---------------------------||
|-------------------|----------------------|---------------------------||
|-------------------|----------------------|-------------------/21\----||
|-------------------|----------------------|---------------------------||


 Chorus
  A5
  Gtr III
  PM|          ~~~PM|          ~~~         ~~~
|---------------------------------------------|
|-----[8]-[7]---------[8]-[7]-----[8]-[7]-----|
|-------------[5]-------------[5]---------[5]-|
|-2-2-------------2-2-------------------------|
|-0-0-------------0-0-------------------------|
|---------------------------------------------|
|
| Gtrs IV, V
| PM|             PM|
|---------------------------------------------|
|---------------------------------------------|
|---------------------------------------------|
|-2-2-------------2-2-------------------------|
|-0-0-------------0-0-------------------------|
|---------------------------------------------|


  E5
  PM|          ~~~
|-----------------------------------------------------------------|
|-----[8]-[7]-----------------------------------------------------|
|-------------[4]-[4]-[5]-[4]h[5]p[4]-----[4]---------------------|
|-------------------------------------[7]-----[5]-[7]-[4]-[5]-----|
|-2-2---------------------------------------------------------[7]-|
|-0-0-------------------------------------------------------------|
|
| PM|
|-----------------------------------------------------------------|
|-----------------------------------------------------------------|
|-----------------------------------------------------------------|
|-----------------------------------------------------------------|
|-2-2-------------------------------------------------------------|
|-0-0-------------------------------------------------------------|


  A5
  PM|          ~~~PM|          ~~~         ~~~
|---------------------------------------------|
|-----[8]-[7]---------[8]-[7]-----[8]-[7]-----|
|-------------[5]-------------[5]---------[5]-|
|-2-2-------------2-2-------------------------|
|-0-0-------------0-0-------------------------|
|---------------------------------------------|
|
| PM|             PM|
|---------------------------------------------|
|---------------------------------------------|
|---------------------------------------------|
|-2-2-------------2-2-------------------------|
|-0-0-------------0-0-------------------------|
|---------------------------------------------|


  E5
  PM|          ~~~
|-----------------------------------------------------------------|
|-----[8]-[7]-----------------------------------------------------|
|-------------[4]-[4]-[5]-[4]h[5]p[4]-----[4]---------------------|
|-------------------------------------[7]-----[5]-[7]-[4]-[5]-----|
|-2-2---------------------------------------------------------[7]-|
|-0-0-------------------------------------------------------------|
|
| PM|
|-----------------------------------------------------------------|
|-----------------------------------------------------------------|
|-----------------------------------------------------------------|
|-----------------------------------------------------------------|
|-2-2-------------------------------------------------------------|
|-0-0-------------------------------------------------------------|


  (C)               (C/Bb)  (C/A)       (C)               (C/Bb)  A9
  Gtrs I, II
|-----------------|-------------------|-----------------|---------------------||
|-----------------|-------------------|-----------------|-------------0-------||
|-----0-------0---|-----0-------0-----|-----0-------0---|-----0---------------||
|---2---2---2---2-|---2---2---2-------|---2---2---2---2-|---2---2---2---------||
|-3-------3-------|-1-------0-----1-2-|-3-------3-------|-1-------0-----------||
|-----------------|-------------------|-----------------|---------------5p3---||


   Bridge
    (Am)                                (Em)
    Gtr III
    PM|     PM|     PM|     PM|         PM|     PM|     PM|     PM|
                                                                          3x
||------5-5-----3-3-----2-2-----0---0-|-----0-0-----0-0-----0-0-----0-0---||
||o-----5-5-----5-5-----5-5-----5---5-|-----0-0-----2-2-----3-3-----5-5--o||
||------------------------------------|-----------------------------------||
||------------------------------------|-----------------------------------||
||o-0-0-----0-0-----0-0-----0-0-------|----------------------------------o||
||------------------------------------|-0-0-----0-0-----0-0-----0-0-------||
|
|   Gtr VI
|                                                                         3x
||------------------------------------|-----------------------------------||
||o-----------------------------------|----------------------------------o||
||------------------------------------|-----------------------------------||
||------------------------------------|-----------------------------------||
||o-------------------------------/10s|=9--------------------------------o||
||------------------------------------|-----------------------------------||


  (Am)                              (Em)
  Gtr III
  PM|     PM|     PM|     PM|       PM|     PM|     PM|     PM|
|-----5-5-----3-3-----2-2-----0-0-|-----0-0-----0-0-----0-0-----0-0-||
|-----5-5-----5-5-----5-5-----5-5-|-----0-0-----2-2-----3-3-----5-5-||
|---------------------------------|---------------------------------||
|---------------------------------|---------------------------------||
|-0-0-----0-0-----0-0-----0-0-----|---------------------------------||
|---------------------------------|-0-0-----0-0-----0-0-----0-0-----||

[ Tab from: http://www.guitartabs.cc/tabs/o/osbourne_ozzy/denial_tab.html ]
 Guitar Solo
  (Am)                          (Em)
  Gtr III
      ~     ~     ~     ~           ~     ~
|-----------------------------|-----------------------------------|
|-8p0-8-7p0-7-5p0-5-3p0-3-----|-----------------------------------|
|-----------------------------|-4p0-4-3p0-3-0tr2-(0)--------------|
|-----------------------------|-------------------------2-(2)/----|
|-----------------------------|-----------------------------------|
|-----------------------------|-----------------------------------|
|
| Gtr IV
|-----------------------------|-----------------------------------|
|-----------------------------|-----------------------------------|
|-----------------------------|-----------------------------------|
|-2-----4-----5-----5s==7-----|-----------------------------------|
|-0-----0-----0-----0---------|-2-----4-----------5---5s7---------|
|-------------------------0-3-|-0-----0-----------0-----0--0---3--|


  (Am)                            (Em)
      ~     ~       ~     ~           ~       ~
|-------------------------------|------------------------------------------|
|-8p0-8-7p0-7-0-5p0-5-3p0-3-----|------------------------------------------|
|-------------------------------|-4p0-4---3p0-3-----0tr2-(0)---------------|
|-------------------------------|--------------------------------2-(2)/----|
|-------------------------------|------------------------------------------|
|-------------------------------|------------------------------------------|
|
|-------------------------------|------------------------------------------|
|-------------------------------|------------------------------------------|
|-------------------------------|------------------------------------------|
|-2-----4-----5-------5s==7-----|------------------------------------------|
|-0-----0-----0-------0---------|-2-----2-4-----4-4-------5--5-5s7---------|
|---------------------------0-3-|-0-----0-0-----0-0-------0--0---0--0---3--|


        (Am)
          ~~~~~~~~~
|------------------12-14-14b15==(14)--(14)r==(14)-12-|
|-15b17-(15)--(15)-----------------------------------|
|----------------------------------------------------|
|----------------------------------------------------|
|----------------------------------------------------|
|----------------------------------------------------|
|
|----------------------------------------------------|
|----------------------------------------------------|
|----------------------------------------------------|
|---------2-----4-----------------5-----5s=7---------|
|---------0-----0-----------------0-----0------------|
|----------------------------------------------0---3-|


  (Em)
|----------------------------------------------------------------------------------------------------------|
|-15b17==(15)r(15)p12-15b17==(15)r(15)p12-15b17==(15)r(15)p12-15b17==(15)r(15)p12--------------------------|
|---------------------------------------------------------------------------------14b16==(14)r(14)p12------|
|-----------------------------------------------------------------------------------------------------14---|
|----------------------------------------------------------------------------------------------------------|
|----------------------------------------------------------------------------------------------------------|
|
|----------------------------------------------------------------------------------------------------------|
|----------------------------------------------------------------------------------------------------------|
|----------------------------------------------------------------------------------------------------------|
|----------------------------------------------------------------------------------------------------------|
|----------2--------2---------------4--------------4----4---5---------------5------5s======7---------------|
|----------0--------0---------------0--------------0----0---0---------------0--------------0-----------0-3-|


  (Am)
          ~~~~~~~~~
|------------------12-14-14b15==(14)--(14)r==(14)-(14)\-|
|-15b17-(15)--(15)--------------------------------------|
|-------------------------------------------------------|
|-------------------------------------------------------|
|-------------------------------------------------------|
|-------------------------------------------------------|
|
|-------------------------------------------------------|
|-------------------------------------------------------|
|-------------------------------------------------------|
|---------2-----4-----------------5-----5s=7------------|
|---------0-----0-----------------0-----0---------------|
|----------------------------------------------0----3---|


  (Em)
|-------------------------------------------------------------------------------|
|-------------------------------------------------------------------------------|
|-2b4==(2)-2pb4-(2)-2pb4-(2)r-2pb3==(2)-2pb3-(2)-2pb3-(2)r-2-2-2---2p0----------|
|----------------------------------------------------------------------2---(2)/-|
|-------------------------------------------------------------------------------|
|-------------------------------------------------------------------------------|
|
|-------------------------------------------------------------------------------|
|-------------------------------------------------------------------------------|
|-------------------------------------------------------------------------------|
|-------------------------------------------------------------------------------|
|-------2----------------------------4---------------------5-----5s7------------|
|-------0----------------------------0---------------------0-------0-----0--3---|


  C5
|---------8h10h12---------8h10h12---------8h10h12---------8h10h12---------8h10h12---------8h10h12---------8h10h12---------8h10h12---|
|-8h10h12---------8h10h12---------8h10h12---------8h10h12---------8h10h12---------8h10h12---------8h10h12---------8h10h12-----------|
|-----------------------------------------------------------------------------------------------------------------------------------|
|-----------------------------------------------------------------------------------------------------------------------------------|
|-----------------------------------------------------------------------------------------------------------------------------------|
|-----------------------------------------------------------------------------------------------------------------------------------|
|
|                 PM------|                       PM------|                       PM------|                       PM------|
|-----------------------------------------------------------------------------------------------------------------------------------|
|-----------------------------------------------------------------------------------------------------------------------------------|
|-5-------------------------------5-------------------------------5-------------------------------5---------------------------------|
|-5-------------------------------5-------------------------------5-------------------------------5---------------------------------|
|-3---------------3-------3-------3---------------3-------3-------3---------------3-------3-------3---------------3-------3---------|
|-----------------------------------------------------------------------------------------------------------------------------------|


  B5
|-14h15h17-14h15h17-12h14h15-12h14h15-10h12h14-10h12h14-8h10h12-8h10h12---------------------------------------------------------------------|
|-----------------------------------------------------------------------12h13h15-12h13h15-10h12h13-10h12h13-8h10h12-8h10h12-7h8h10-7h8h10---|
|-------------------------------------------------------------------------------------------------------------------------------------------|
|-------------------------------------------------------------------------------------------------------------------------------------------|
|-------------------------------------------------------------------------------------------------------------------------------------------|
|-------------------------------------------------------------------------------------------------------------------------------------------|
|
|                    PM------|                          PM------|                          PM------|                        PM-----|
|-------------------------------------------------------------------------------------------------------------------------------------------|
|-------------------------------------------------------------------------------------------------------------------------------------------|
|--4-----------------------------------4---------------------------------4----------------------------------4-------------------------------|
|--4-----------------------------------4---------------------------------4----------------------------------4-------------------------------|
|--2-----------------2--------2--------2----------------2-------2--------2-----------------2--------2-------2---------------2------2--------|
|-------------------------------------------------------------------------------------------------------------------------------------------|


  C5
|---------8h10h12---------8h10h12---------8h10h12---------8h10h12---------8h10h12---------8h10h12---------8h10h12---------8h10h12---|
|-8h10h12---------8h10h12---------8h10h12---------8h10h12---------8h10h12---------8h10h12---------8h10h12---------8h10h12-----------|
|-----------------------------------------------------------------------------------------------------------------------------------|
|-----------------------------------------------------------------------------------------------------------------------------------|
|-----------------------------------------------------------------------------------------------------------------------------------|
|-----------------------------------------------------------------------------------------------------------------------------------|
|
|                 PM------|                       PM------|                       PM------|                       PM------|
|-----------------------------------------------------------------------------------------------------------------------------------|
|-----------------------------------------------------------------------------------------------------------------------------------|
|-5-------------------------------5-------------------------------5-------------------------------5---------------------------------|
|-5-------------------------------5-------------------------------5-------------------------------5---------------------------------|
|-3---------------3-------3-------3---------------3-------3-------3---------------3-------3-------3---------------3-------3---------|
|-----------------------------------------------------------------------------------------------------------------------------------|


  B5    A5        (Em)       (C/E)       (Em6)         (C/E)
                                                        \5
   ~~               ~~~~~~~~~~~~~~~~~~~~~~~~~~~
|---------------|----------------------|---------------15---------||
|-12----10--8-7-|----------------------|----------------x---------||
|---------------|-/-----------------|-()--------------------||
|---------------|----------------------|--------------------------||
|---------------|----------------------|--------------------------||
|---------------|----------------------|--------------------------||
|
|---------------|----------------------|--------------------------||
|---------------|----------------------|--------------------------||
|--4-----2------|----------------------|--------------------------||
|--4-----2------|---2------------------|---2----------------------||
|--2-----0------|---2------------------|---2----------------------||
|-----------3-2-|---0------------------|---0----------------------||
|
| Gtrs I, II
|---------------|----------------------|--------------------------||
|---------------|----------------------|--------------------------||
|---------------|--------0---------0---|-----------0-----------0--||
|---------------|----------2-----2---2-|---------2------5--4-5----||
|---------------|------2-----2s3-------|---3s==4-----4--3--3-3----||
|---------------|---0------------------|--------------------------||


 Verse
  (Em)    (C/E)       (Em6)     (C/E)
  Gtrs I, II
|-------------------|-------------------|
|-------------------|-------------------|
|-----0---------0---|-------0---------0-|
|-------2-----2---2-|-----2-----5-4-5---|
|---2-----2s3-------|-3s4-----4-3-3-3---|
|-0-----------------|-------------------|
|
| Gtr III
|-------------------|-------------------|
|-------------------|-------------------|
|-------------------|-------------------|
|-------------------|-------------------|
|-------------------|-------------------|
|-------------------|-------------------|


  (Em)    (C/E)       (Em6)     (C/E)
|-------------------|---------------------||
|-------------------|---------------------||
|-----0---------0---|-------0-----------0-||
|-------2-----2---2-|-----2-----5-4--5----||
|---2-----2s3-------|-3s4-----4-3-3--3----||
|-0-----------------|---------------------||
|
|-------------------|---------------------||
|-------------------|---------------------||
|-------------------|---------------------||
|-------------------|---------------------||
|-------------------|---------------12\---||
|-------------------|---------------------||


   Chorus
    A5
    Gtr III
    PM|          ~~~PM|          ~~~         ~~~
||----------------------------------------------|
||o-----[8]-[7]---------[8]-[7]-----[8]-[7]-----|
||--------------[5]-------------[5]---------[5]-|
||--2-2-------------2-2-------------------------|
||o-0-0-------------0-0-------------------------|
||----------------------------------------------|
|
|   Gtrs IV, V
|   PM|             PM|
||----------------------------------------------|
||o---------------------------------------------|
||----------------------------------------------|
||--2-2-------------2-2-------------------------|
||o-0-0-------------0-0-------------------------|
||----------------------------------------------|


  E5
  PM|          ~~~
                                                                    4x
|-------------------------------------------------------------------||
|-----[8]-[7]------------------------------------------------------o||
|-------------[4]-[4]-[5]-[4]h[5]p[4]-----[4]-----------------------||
|-------------------------------------[7]-----[5]-[7]-[4]-[5]-------||
|-2-2---------------------------------------------------------[7]--o||
|-0-0---------------------------------------------------------------||
|
| PM|
|                                                                   4x
|-------------------------------------------------------------------||
|------------------------------------------------------------------o||
|-------------------------------------------------------------------||
|-------------------------------------------------------------------||
|-2-2--------------------------------------------------------------o||
|-0-0---------------------------------------------------------------||


  (C)               (C/Bb)  (C/A)       (C)               (C/Bb)  (C/A)
  Gtrs IV, V
|-----------------|-------------------|-----------------|---------------------|
|-----------------|-------------------|-----------------|---------------------|
|-----0-------0---|-----0-------0-----|-----0-------0---|-----0-------0-------|
|---2---2---2---2-|---2---2---2-------|---2---2---2---2-|---2---2---2---------|
|-3-------3-------|-1-------0-----1-2-|-3-------3-------|-1-------0-----1-2---|
|-----------------|-------------------|-----------------|---------------------|


    (C)     (C/Bb)    (C/A)
||------------------|----------------------------|
||o-----------------|----------------------------|
||------0-------0---|-----0-------3b5==(3)r(3)---|
||----2---2---2---2-|---2---2---1--------------3-|
||o-3-------1-------|-0-------0------------------|
||------------------|----------------------------|


  (C)     (C/Bb)    (C/A)
                                                 3x
|-----------------|------------------------------||
|-----------------|-----------------------------o||
|-----0-------0---|-----0-------3b5==(3)r(3)-----||
|---2---2---2---2-|---2---2---1--------------3---||
|-3-------1-------|-0-------0-------------------o||
|-----------------|------------------------------||



Comments