Osbourne Ozzy - Childern Of The Grave (live) Tribute Ver Chords & Tabs

 

Childern Of The Grave (live) Tribute Ver Chords & Tabs

Osbourne Ozzy Chords & Tabs

Version: 1 Type: Tab 0 ratings
1 star 2 stars 3 stars 4 stars 5 stars
comments

Childern Of The Grave (live) Tribute Ver Tab

   
  Ozzy Osbourne
Choldern of the grave(live)
  
                      C#5                       E5
 12/8
  Gtr I
                                             7x
|-------x\--------||-------------------------||---------------------------|
|-------x\--------||o-----------------------o||---------------------------|
|-----------------||--6----------6-----------||-9-9-9-9-9-9-9-9-9-9-x-x\--|
|------------x\---||--6----------6-----------||-9-9-9-9-9-9-9-9-9-9-x-x\--|
|------------x\---||o-4--4-4-4-4-4--4-4-4-4-o||-7-7-7-7-7-7-7-7-7-7-x-x\--|
|-----------------||-------------------------||---------------------------|


  C#5                            E5
                ~~~~~~~~~~~~
|--------------------|-(13)---------------|
|--------------------|--------------------|
|--------------------|--------------------|
|-6------(6)---------|-----------9---9\---|
|-4------(4)---(4)---|--(4)------7---7\---|
|--------------------|-----------0--------|


  A5
|---------------------------------|---------------------------|
|---------------------------------|---------------------------|
|-2------(2)---(2)--------[9]b13==|=(9)------(9)r==(9)--x\----|
|-2------(2)---(2)------x---------|---------------------x\----|
|-0------(0)---(0)----x-----------|---------------------------|
|-------------------x-------------|---------------------------|


  B5                                        C#5        C#m7
               PM--|   ~~~~~~~~~~~
|--------------------|--------------------|-----------------------|
|--------------------|--------------------|------------5----------|
|--------------------|--------------------|-6----------4----------|
|-4------(4)---------|--------------------|-6---------------------|
|-2------(2)---4-2-4-|-6------(6)---6p4p2-|-4--4-4-4-4----4-4-4-4-|
|--------------------|--------------------|-----------------------|


  C#m7       (A) (G#)  C#5                                (A) (G#)
     PM----| ~~~~~~                               PM----| ~~~~~~
|--------------------|-----------------------|--------------------|
|-5------------------|-----------------------|--------------------|
|-4------------------|-6----------6----------|-6------------------|
|--------------------|-6----------6----------|-6------------------|
|----4-4-4-4---------|-4--4-4-4-4-4--4-4-4-4-|-4--4-4-4-4---------|
|------------5---4---|-----------------------|------------5---4---|


   1st Verse
    C#5
||--------------------------|
||o-------------------------|
||--------------------------|
||--11----------11----------|
||o-11----------11----------|
||---9--9-9-9-9--9--9-9-9-9-|


                         E5    C#5
                            7x
|----------------12-(12)----||--------------------------|
|----------------12-(12)---o||--------------------------|
|---------------------------||--------------------------|
|-11------------------------||-11----------11-----------|
|-11-----------------------o||-11----------11-----------|
|--9--9-9-9-9-9-------------||--9--9-9-9-9--9--9-9-9-9--|


                     C#5                     E5              A5
|------------------|--------------|------------------------|------|
|------------------|--------------|------------------------|------|
|------------------|--------------|------------------------|-2----|
|------------------|-6------------|-(6)------9---(9)-(9)\--|-2----|
|-11------11\------|-4------------|-(4)------7---(7)-(7)\--|-0----|
|--9-------9\------|--------------|------------------------|------|


                            B5
  PM--------|                                              ~~~~~~~~~~
|-------------------------|--------------(17)---|-(17)---(14)---(14)----|
|-------------------------|---------------------|-----------------------|
|-4-2-1-------------------|-4------(4)-----4----|--(4)------------------|
|-------4-2-1-------------|-4------(4)-----4----|--(4)------------------|
|-------------4p2p0-------|-2-------------------|--(2)------------------|
|-------------------4p2p0-|---------------------|-----------------------|


                                               2nd Verse
  C#5                            (A)(G#)        C#5
                                    ~~~~~~
|------------0----------|-------------------||--------------------------|
|------------0----------|-------------------||o-------------------------|
|-6---------------------|-6-----------------||--------------------------|
|-6---------------------|-6-----------------||--11----------11----------|
|-4--4-4-4-4----4-4-4-4-|-4--4-4------------||o-11----------11----------|
|-----------------------|--------5--4---4---||---9--9-9-9-9--9--9-9-9-9-|


                 E5
                            3x
|----------------12-(12)----||
|----------------12-(12)---o||
|---------------------------||
|-11------------------------||
|-11-----------------------o||
|--9--9-9-9-9-9-------------||


  C#5
|-------------------------|--------------------------|
|-------------------------|------------17--17-(17)---|
|-------------------------|------------18--18-(18)---|
|-11----------11----------|-11-----------------------|
|-11----------11----------|-11-----------------------|
|--9--9-9-9-9--9--9-9-9-9-|--9--9-9-9----------------|


  C#5                                      E5          C#5
|-------------------------|----------------12-(12)---|-------------------------|
|-------------------------|----------------12-(12)---|-------------------------|
|-------------------------|--------------------------|-------------------------|
|-11----------11----------|-11-----------------------|-11----------11----------|
|-11----------11----------|-11-----------------------|-11----------11----------|
|--9--9-9-9-9--9--9-9-9-9-|--9--9-9-9-9-9------------|--9--9-9-9-9--9--9-9-9-9-|


                       T  ~~~
|------------------------------|
|------------------------------|
|------11b13====(11)--14p11r---|
|-11---------------------------|
|-11---------------------------|
|--9---------------------------|


  C#5                                      E5
|-------------------------|----------------12-(12)---|
|-------------------------|----------------12-(12)---|
|-------------------------|--------------------------|
|-11----------11----------|-11-----------------------|
|-11----------11----------|-11-----------------------|
|--9--9-9-9-9--9--9-9-9-9-|--9--9-9-9-9-9------------|


  C#5
                                             ~~~~
|-------------------------|------------------------------------------|
|-------------------------|------------------------------------------|
|-------------------------|------------------------------------------|
|-11----------11----------|-9s11b14===(11)-(11)---(11)r==(11)--(11)\-|
|-11----------11----------|------------------------------------------|
|--9--9-9-9-9--9--9-9-9-9-|------------------------------------------|


  C#5                     E5
|--------------|--------------------------|
|--------------|--------------------------|
|--------------|--------------------------|
|-6------------|-(6)------/9---(9)-(9)\---|
|-4------------|-(4)------/7---(7)-(7)\---|
|--------------|--------------------------|


  A5
                           ~~~~~~~~~~~~~
|----------------------|--21-------(21)--^21-------|
|----------------------|-----------------^21-------|
|-2------(2)---/19s=21-|-(21)------(21)--^21-------|
|-2------(2)-----------|---------------------------|
|-0------(0)-----------|---------------------------|
|----------------------|---------------------19\---|


  B5
|----------------------|--------||
|----------------------|--------||
|-4------(4)----6p=4-6p|==4-----||
|-4------(4)---(4)---4-|-(4)----||
|-2------(2)---(2)-----|-(2)----||
|----------------------|--------||


   Interlude
    N.C.
    PM--------|    ~~~~~~
||-------------------------|
||o------------------------|
||-------------------------|
||-------------------------|
||o---------2---2--4-(4)---|
||--0-2-3-4---4------------|


  PM--------|    ~~~~~~      PM--------|    ~~~~~~
|-------------------------||-------------------------|
|------------------------o||-------------------------|
|-------------------------||-------------------------|
|-------------------------||-------------2-----------|
|---------2--------------o||---------2------4-(4)----|
|-0-2-3-4---4-3--2-(2)----||-0-2-3-4---4-------------|


  PM--------|    ~~~~~~    PM--------|    ~~~~~~    PM--------|    ~~~~~~
|------------------------|------------------------|-------------------------||
|------------------------|------------------------|-------------------------||
|------------------------|------------------------|-------------------------||
|------------------------|------------------------|-------------------------||
|---------2--------------|---------2---2--4-(4)---|---------2---------------||
|-0-2-3-4---4-3--2-(2)---|-0-2-3-4---4------------|-0-2-3-4---4-3--2-(2)-0--||


  Q=73
  C#5  E5C#5G#5 G5   G5G#A#B5  C#5  E5C#5B5          B5
 4/4
                                             ~
|-------------|--------------|-------------|-------------|
|-------------|--------------|-------------|-------------|
|-6S===9s6----|--------------|-6----9S6--4-|-3----3--4---|
|-6S===9s6--6-|-5--------3-4-|-6----9S6--4-|-3----3--4---|
|-4S===7s4--6-|-5----5s6-1-2-|-4----7S4--2-|-1----1--2---|
|-----------4-|-3----3s4-----|-------------|-------------|


  C#5  E5C#5G#5 G5       G5G#A#B5  C#5      E5C#5B5  A#5     B5
                                                     ~
|-------------|---(20)-----------|-----------------|-------------||
|-------------|------------------|-----------------|-------------||
|-6----9S6----|------------------|-6--(6)\--9S6--4-|-3----3--4---||
|-6----9S6--6-|-5------------3-4-|-6--(6)\--9S6--4-|-3----3--4---||
|-4----7S4--6-|-5--------5-6-1-2-|-4--(4)\--7S4--2-|-1----1--2---||
|-----------4-|-3--------3-4-----|-----------------|-------------||


  Q.=146
  C#5                                (A) (G#)  C#5
 12/8
                                     ~~~~~~         PM|
|-----------------------|--------------------|------------------------|
|-----------------------|--------------------|----------4-5-----------|
|-----------------------|--------------------|-6--------4-6-----------|
|-6----------6----------|-6------------------|-6----4-6---------------|
|-4--4-4-4-4-4--4-4-4-4-|-4--4-4-4-4---------|-4--4----------4-4-4-4--|
|-----------------------|------------5---4---|------------------------|


  C#5        (A) (G#)  C#5                         E5
             ~~~~~~
|--------------------|--------------|-------------------------|
|--------------------|--------------|-------------------------|
|-6------------------|-6------------|-(6)---(6)--6s9---(9)\---|
|-6------------------|-6------------|-(6)---(6)--6s9---(9)\---|
|-4--4-4-4-4---------|-4------------|-(4)---(4)--4s7---(7)\---|
|------------5---4---|--------------|-------------------------|


  A5
|---------------------------------|
|---------------------------------|
|-2------(2)---(2)--------[9]b13==|
|-2------(2)---(2)------9---------|
|-0------(0)---(0)----9-----------|
|-------------------9-------------|


                          B5
   ~~~~~~~~~~~~~
|-----------------------|-----------------------------|
|-----------------------|-----------------------------|
|-(9)------(9)r---6p4p2-|-4------(4)------------------|
|-----------------------|-4------(4)---4b5==(4)r(4)p2-|
|-----------------------|-2------(2)------------------|
|-----------------------|-----------------------------|


  C#5                                (A) (G#)  C#5
|-----------------------|--------------------|-----------------------|
|------------5----------|-5------------------|-----------------------|
|------------4----------|-0------------------|-----------------------|
|-6---------------------|--------------------|-6----------6----------|
|-4--4-4-4-4----4-4-4-4-|----4-4-4-4---------|-4--4-4-4-4-4--4-4-4-4-|
|-----------------------|------------5---4---|-----------------------|


                        3rd Verse
             (A) (G#)    C#5                                      E5
                                                                             3x
|--------------------||--------------------------|----------------12-(12)----||
|--------------------||o-------------------------|----------------12-(12)---o||
|--------------------||--------------------------|---------------------------||
|-6------------------||--11----------11----------|-11------------------------||
|-4--4-4-4-4---------||o-11----------11----------|-11-----------------------o||
|------------5---4---||---9--9-9-9-9--9--9-9-9-9-|--9--9-9-9-9-9-------------||


  C#5
|-------------------------|
|-------------------------|
|-------------------------|
|-11----------11----------|
|-11----------11----------|
|--9--9-9-9-9--9--9-9-9-9-|


|------------------------------|-------------------------|
|-------------------17--(17)---|-------------------------|
|-------------/16--(16)-(16)---|-------------------------|
|------------------------------|-11----------11----------|
|-11---------------------------|-11----------11----------|
|--9--9-9-9-9------------------|--9--9-9-9-9--9--9-9-9-9-|


                 E5          C#5
|----------------12-(12)---|-------------------------|------------------|
|----------------12-(12)---|-------------------------|------x-----------|
|--------------------------|-------------------------|------xS==xs==x---|
|-11-----------------------|-11----------11----------|----------xs==x---|
|-11-----------------------|-11----------11----------|-11---------------|
|--9--9-9-9-9-9------------|--9--9-9-9-9--9--9-9-9-9-|--9---------------|

[ Tab from: http://www.guitartabs.cc/tabs/o/osbourne_ozzy/childern_of_the_grave_live_tribute_ver_tab.html ]
  C#5                           E5
|--------------|------------------------------|
|--------------|------------------------------|
|-6------------|-(6)---(6)--(6)-9---(9)--(9)\-|
|-6------------|-(6)---(6)--(6)-9---(9)--(9)\-|
|-4------------|-(4)---(4)--(4)-7---(7)--(7)\-|
|--------------|------------------------------|


  A5
|--------------|---------------------|
|--------------|---------------------|
|-2------------|-(2)------(2)---x----|
|-2------------|-(2)------(2)---x----|
|-0------------|-(0)------(0)---x----|
|--------------|---------------------|


  B5
|----------------------------|-----------------------------|
|----------------------------|-----------------------------|
|-4------(4)---(4)--(4)------|-----------------------------|
|-4------(4)---(4)--(4)-4b6==|=(4)---(4)---(4)r=(4)p=2-----|
|-2------(2)---(2)--(2)------|-------------------------4p2-|
|----------------------------|-----------------------------|


  C#5
           ~~~~~~~~~~~
|-----------------|-------------------------||
|-----------------|--------------------9----||
|-----------------|--------------------9----||
|-----------------|-------------9-11p9------||
|-4------5s6------|-7------9s11-------------||
|-----------------|-------------------------||


 Guitar Solo
  C#5                                         E5
              ~~~~~~~                       ~~~~~~~         ~~~
|-----------------------------|-------------------------------|
|-(9)-----------------------9-|-(9)------------------14p12-14-|
|-(9)-----------------------9-|-(9)---------------------------|
|-------11p9-11-(11)---11p9---|-------11p9-11-(11)------------|
|-----------------------------|-------------------------------|
|-----------------------------|-------------------------------|


  A5
 ~~~~~~         ~~~~~~~               ~~
|---------------------------------------|
|-(14)---14p12-14-(14)---14p12h14p12h14-|
|---------------------------------------|
|---------------------------------------|
|---------------------------------------|
|---------------------------------------|


    ~~~~~~~~~~          ~~~~~~~
|--------------------------------12h14h15p14p12-|
|-(14)---(14)-12h14p12h14-(14)------------------|
|-----------------------------------------------|
|-----------------------------------------------|
|-----------------------------------------------|
|-----------------------------------------------|


  B5
|-14h15p14p12-14h15p14p12-14h15p14p12-14-15p12h14p11s9--|
|-------------------------------------------------------|
|-------------------------------------------------------|
|-------------------------------------------------------|
|-------------------------------------------------------|
|-------------------------------------------------------|


|-12p9----9--------------------------------9-------9-------|
|------12---12p9-10p9----9---------------------------------|
|---------------------12---12p9h11p9-11s12---11s12---11s12-|
|----------------------------------------------------------|
|----------------------------------------------------------|
|----------------------------------------------------------|


  C#5
                                                            ~~~
|-9-------9-------9-------9-------9----------|-----------------------|
|--------------------------------------------|-------------------0---|
|---11s12---11s12---11s12---11s12---11--9h11p|=9-----11--9-(9)---0---|
|--------------------------------------------|----11-----------------|
|--------------------------------------------|-----------------------|
|--------------------------------------------|-----------------------|


                                                   E5
|-------------------------------|----------11h12-9-11----11-------12-|
|-10p9-10p9------10p9-10p9------|-10h12h14------------12----12s14----|
|-----------11p9-----------11p9-|------------------------------------|
|-------------------------------|------------------------------------|
|-------------------------------|------------------------------------|
|-------------------------------|------------------------------------|


  A5
|-14h15p14p12-14h15p14p12----------12-|
|-------------------------14-12h14----|
|-------------------------------------|
|-------------------------------------|
|-------------------------------------|
|-------------------------------------|


                                        B5
                                                           ~~
|-------16-17-19-16-17----16----------|-------------------------|
|-14s18----------------19----19p17p16-|-------------------------|
|-------------------------------------|-18p16-------------------|
|-------------------------------------|-------19-18-16----------|
|-------------------------------------|----------------19-18----|
|-------------------------------------|-------------------------|


                                        C#5
|-------------------------------------|-------------------------------------|
|----------------------------17s16----|-17p16-17p16-------19p16-17p16-------|
|-------------------16h18h20-------18-|-------------18p16-------------18p16-|
|----------16-18h19-------------------|-------------------------------------|
|-16-18h19----------------------------|-------------------------------------|
|-------------------------------------|-------------------------------------|


                                            ~~~~~~~~~~~~~
|-----------------------------------19--|-(19)------(19)------|
|-17p16-17p16-19b21===(19)---(19)--(19)-|-(19)------(19)------|
|---------------------------------------|---------------------|
|---------------------------------------|---------------------|
|---------------------------------------|---------------------|
|---------------------------------------|---------------------|


          E5                A5
                        ~~~~~~~~~
|-------------------------|------------------------|
|-19r=====(19)---17p16-17-|-(17)---16--------------|
|-------------------------|-------------18---16----|
|-------------------------|------------------------|
|-------------------------|------------------------|
|-------------------------|------------------------|


                          B5
                      ~~~~~~~~~
|----------------16-----|-----------------------------19--|
|------16---17-------19-|-(19)------(19)---(19)b21===(19)-|
|-18--------------------|---------------------------------|
|-----------------------|---------------------------------|
|-----------------------|---------------------------------|
|-----------------------|---------------------------------|


                             C#5
    ~~~~~~~~~~~~~
|-(19)------(19)-----------|----------------------------------------|
|-(19)------(19)--x\-----9-|-(9)b9.5--------9-(9)b9.5--------9b11---|
|-----------------x\-----9-|-(9)b9.5--------9-(9)b9.5--------9b11---|
|--------------------11----|-----------11p9-------------11p9--------|
|--------------------------|----------------------------------------|
|--------------------------|----------------------------------------|


|-----------------------------|---------9---------9---------9---------9-|
|-(9)------(9)----------------|-------9---------9---------9---------9---|
|-(9)------(9)-----9b9.5------|-11b13-----11b13-----11b13-----11b13-----|
|---------------11-------11p0-|-----------------------------------------|
|-----------------------------|-----------------------------------------|
|-----------------------------|-----------------------------------------|


                      E5
|---------9---------9---------9---------9-|
|-------9---------9---------9---------9---|
|-11b13-----11b13-----11b13-----11b13-----|
|-----------------------------------------|
|-----------------------------------------|
|-----------------------------------------|


  A5
|---------9---------9---------9---------9-|
|-------9---------9---------9---------9---|
|-11b13-----11b13-----11b13-----11b13-----|
|-----------------------------------------|
|-----------------------------------------|
|-----------------------------------------|


|---------9---------9---------9---------9-|
|-------9---------9---------9---------9---|
|-11b13-----11b13-----11b13-----11b13-----|
|-----------------------------------------|
|-----------------------------------------|
|-----------------------------------------|


  B5
|---------9---------9-----------------------|
|-------9---------9-------------------------|
|-11b13-----11b13-----11b12r11p9------11p9--|
|--------------------------------(11)-------|
|-------------------------------------------|
|-------------------------------------------|


                                      C#5
|------------9-(9)------------------|------------------------------------------|
|------------9-(9)-(9)--(9)--12-----|-(12)---(12)---(12)--(12)-(12)-(12)-(12)--|
|-(9)----9---9-(9)-(9)--(9)--11b13==|=(11)---(11)---(11)--(11)-(11)-(11)-(11)--|
|-------11p9------------------------|------------------------------------------|
|-----------------------------------|------------------------------------------|
|-----------------------------------|------------------------------------------|


|------------------------------------------|
|-(12)-(12)-(12)-(12)-(12)-(12)-12---12\---|
|-(11)-(11)-(11)-(11)-(11)-(11)-11---11\---|
|------------------------------------------|
|------------------------------------------|
|------------------------------------------|


                                                E5
|---------------------------------|---------------------x-|
|---------------------------------|-5p4-5p4-------------x-|
|-[9]----[8]----[7]---6---5---4h6-|---------6p4-6s8--8----|
|-----11-----10-----9---8---7-----|-----------------------|
|---------------------------------|-----------------------|
|---------------------------------|-----------------------|


  A5
                        ~~~~~~~~                 ~
|-------------------------|--------------------------|
|-----------------4-5p4---|-------4h5p4s5h7p5-10p9---|
|-------------4h6-------6-|-(6)----------------------|
|-------------------------|--------------------------|
|-2h3h4-0h2h4-------------|--------------------------|
|-------------------------|--------------------------|


  B5
|-------------------------------------------|
|----------17-------------------------------|
|-14h16s18----18b21====(18)---(18)b22--(18)-|
|-------------------------------------------|
|-------------------------------------------|
|-------------------------------------------|


                                 C
|-----------------------------x---------|
|-----------------------------x--17b18==|
|-(18)r=(18)b22-(18)---(18)-------------|
|---------------------------------------|
|---------------------------------------|
|---------------------------------------|


  C#5
|---------------------------------|-------------------------------||
|-(17)---(17)b22---(17)---(17)--x-|-------------------------------||
|-------------------------------x-|-6s8b11--(8)-(8)---(8)---------||
|---------------------------------|-------------------------------||
|---------------------------------|-------------------------x\----||
|---------------------------------|-------------------------x\----||


 Outro
                          E5           A5
|--------------|---------------------|-------------------------------|
|--------------|---------------------|-------------------------------|
|-6------------|-(6)S=====9----(9)\--|-2------(2)---(2)--------6b10==|
|-6------------|-(6)S=====9----(9)\--|-2------(2)---(2)------6-------|
|-4------------|-(4)S=====7----(7)\--|-0------(0)---(0)----6---------|
|--------------|---------------------|-------------------5-----------|


|---------------------------------------|
|----------------------------------0----|
|-6---(6)r(6)b11==(6)-(6)---(6)r\--0----|
|---------------------------------------|
|---------------------------------------|
|---------------------------------------|


  B5
|--------------|-(14)---(14)--(17)-(17)-------|
|--------------|------------------------------|
|-4------------|--(4)---------------(4)---x---|
|-4------------|--(4)---------------(4)---x---|
|-2------------|--(2)---------------(2)---x---|
|--------------|------------------------------|


  Q=146
  N.C.
 4/4
|---------------|----------------------|
|---------------|----------------------|
|-6-6--8-8--9-9-|-(9)-11-11--12--13\---|
|---------------|----------------------|
|-4-4--6-6--7-7-|-(7)--9--9--10--11\---|
|---------------|----------------------|


                                                            H.=H
|---------------|---------------------|---------------|----------------------|
|---------------|---------------------|---------------|----------------------|
|-6-6--8-8--9-9-|-(9)-11-11--12--13---|-6-6--8-8--9-9-|-(9)-11-11--12--13----|
|---------------|---------------------|---------------|----------------------|
|-4-4--6-6--7-7-|-(7)--9--9--10--11p0-|-4-4--6-6--7-7-|-(7)--9--9--10--11p0--|
|---------------|---------------------|---------------|----------------------|


  C#5             N.C.
|----------|----------------|-----------7-----7r--|
|----------|----------------|-----------7b9===7---|
|-6--------|-(6)--4tr6------|-(4tr6)--------------|
|-6--------|-(6)------------|---------------------|
|-4--------|-(4)------------|---------------------|
|----------|----------------|---------------------|


          ~~~
|-(7)----(7)----|-(19)----(22)----|
|-(7)----(7)----|--(7)-----(7)----|
|---------------|-----------------|
|---------------|-----------------|
|---------------|-----------------|
|---------------|-----------------|


|-(22)-(22)-(22)-(22)-(22)-(22)-(22)-(22)-(22)-(22)-(22)-(22)-(22)-(22)-(22)-(22)-|
|--(7)--(7)--(7)--(7)--(7)--(7)--(7)--(7)--(7)--(7)--(7)--(7)--(7)--(7)--(7)--(7)-|
|---------------------------------------------------------------------------------|
|---------------------------------------------------------------------------------|
|---------------------------------------------------------------------------------|
|---------------------------------------------------------------------------------|


                C#5
|-(21)-------------*|
|--(7)-------------*|
|---------------6--*|
|---------------6--*|
|---------11\---4--*|
|-------------0----*|



Comments