Osbourne Ozzy - Centre Of Eternity Chords & Tabs

 

Centre Of Eternity Chords & Tabs

Osbourne Ozzy Chords & Tabs

Version: 1 Type: Tab 0 ratings
1 star 2 stars 3 stars 4 stars 5 stars
comments

Centre Of Eternity Tab

   
 Ozzy Osbourne
Centre of Eternity
 
              N.C.
 4/4
              Gtr I
|---------||-----------------|------------------|
|---------||o----------------|------------------|
|---------||--2----------0---|------------------|
|---------||--------2--------|--4------0----4---|
|---------||o-0----(0)--(0)--|-(0)----(0)--(0)--|
|---------||-----------------|------------------|


|--------------|--------------|------------------|
|--------------|--------------|------------------|
|--------------|------------0-|-2----------0-----|
|--2-----------|----------2---|-------2----------|
|-(0)---0-0----|-(0)----------|-0----(0)--(0)----|
|--------------|--------------|------------------|


  1.
|----------------|------------|---------------||
|----------------|------------|--------------o||
|----------------|------------|----------4-0--||
|-4-----0----4---|-2----------|---------------||
|-0----(0)--(0)--|-0---0-0----|-(0)----------o||
|----------------|------------|---------------||


 2.
                                              Gtr II
|-------------------|--------------|-----------------|
|-------------------|--------------|-----------------|
|-------------------|--------------|-----------------|
|-4-----0---2---4---|--2-----------|-----------------|
|-0----(0)-(0)-(0)--|-(0)---0-0----|-(0)------12-14--|
|-------------------|--------------|-----------------|


  C               D     G               (Am)
|---------------|---------------------|-------------------|
|-13------(13)--|-15----12-(12)-(12)--|-13----(13)---(13)-|
|-12------------|-14----12-(12)-(12)--|-16-----14-----12--|
|----------14---|-12------------------|-------------------|
|-15------------|-------14--12--------|-12----(12)---(12)-|
|---------------|----------------15---|-------------------|


                                          H.=H
                        G                   D
|---------------------|-------------------|--------------------|
|-(13)------(13)-(13)-|-12------(12)-(12)-|--------------------|
|--14-------(14)-(14)-|-12------(12)-(12)-|-14------(14)-(14)--|
|---------------------|-------------------|-16------(16)-(16)--|
|-(12)------(12)-(12)-|----------12-------|--------------------|
|------------12---14--|-15------------15--|-14-------12---10---|


  Q=108                                                         Q=220
  Dm/F                                  E7sus4      E7                 N.C.
                                                                       Gtr III
                                                                       PM--|
|-------------------|-----------------|-----------|-------------|------------||
|-15----(15)---(15)-|-(15)----(15)----|-15--------|-(15)--------|------------||
|-14----(14)---(14)-|-(14)----(14)----|-14--------|--13---------|------------||
|-15----(15)---(15)-|-(15)----(15)----|-12--------|-(12)--------|------------||
|-------------------|-----------------|-----------|-------------|------0-0-0-||
|-13-----12-----13--|--10-------8-----|-12--------|-(12)--------|------------||


 Pre-Verse
  C5 N.C.         D5 N.C.         D5EbN.C.D5 N.C.  C5 N.C.
          PM--|           PM--|                            PM--|
|---------------|---------------|----------------|---------------|
|---------------|---------------|----------------|---------------|
|-5-------------|-7-------------|-7s8-----7------|-5-------------|
|-5-------------|-7-------------|-7s8-----7------|-5-------------|
|----0-0--0-0-0-|----0-0--0-0-0-|-----0-0----0-0-|----0-0--0-0-0-|
|---------------|---------------|----------------|---------------|


  C5 N.C.          D5 N.C.
     PM--------|      PM--------|
|----------------|----------------|
|----------------|----------------|
|-5--------------|-7--------------|
|-5--------------|-7--------------|
|----0-0-0-0-0-0-|----0-0-0-0-0-0-|
|----------------|----------------|


  D5EbN.C.D5 N.C.
|----------------|---------------------------------||
|----------------|---------------------------------||
|-7s8-----7------|-----------------[0]h5h7---------||
|-7s8-----7------|---------[0]h5h7---------[0]h5h7-||
|-----0-0----0-0-|-[0]h5h7-------------------------||
|----------------|---------------------------------||


 Verse
  C5 N.C.         D5 N.C.         D5EbN.C.D5 N.C.  C5 N.C.
          PM--|           PM--|                       PM--------|
|---------------|---------------|----------------|----------------|
|---------------|---------------|----------------|----------------|
|-5-------------|-7-------------|-7s8-----7------|-5--------------|
|-5-------------|-7-------------|-7s8-----7------|-5--------------|
|----0-0--0-0-0-|----0-0--0-0-0-|-----0-0----0-0-|----0-0-0-0-0-0-|
|---------------|---------------|----------------|----------------|


  C5 N.C.         D5 N.C.         D5EbN.C.D5 N.C.  C5
          PM--|           PM--|
|---------------|---------------|----------------|--------------------------|
|---------------|---------------|----------------|--------------------------|
|-5-------------|-7-------------|-7s8-----7------|-5--[8]p7p5p0-------------|
|-5-------------|-7-------------|-7s8-----7------|-5------------7p5p0-------|
|----0-0--0-0-0-|----0-0--0-0-0-|-----0-0----0-0-|--------------------7p5p0-|
|---------------|---------------|----------------|--------------------------|


  A5  G5                      N.C.  G5
                              PM--|
|--------------|------------|----------------|--------|
|--------------|------------|----------------|--------|
|-2---0-(0)----|-(0)--------|-----2-0-(0)----|-(0)----|
|-2---0-(0)----|-(0)--------|---2---0-(0)----|-(0)----|
|-0------------|------------|-0--------------|--------|
|-----3-(3)----|-(3)--------|-------3-(3)----|-(3)----|


      F5                               G5         N.C.
                                                  \4
|--------------|-----------------|--------------|-------||
|--------------|-----------------|-----3-(3)----|-------||
|-0------------|-----------------|-----0-(0)----|-------||
|-0---3-(3)----|-----------------|-----0-(0)----|-------||
|-----3-(3)----|---3-3-3---3-3-3-|-3------------|-------||
|-3---1-(1)----|-0-1-1-1-0-1-1-1-|-1---3-(3)----|-0-----||


   Chorus
    A5         A5(typeEm/A  F#m/A      D5/A   F#m/A
    Gtr II
    |           |     |     |           |     |
    /           /     /     /           /     /

    Gtr III
||-----------|------------|----------|-------------------|
||o----------|------------|----------|-------------------|
||--2--------|-(2)--------|----------|-------------------|
||--2--------|-(2)--------|-4--------|-(4)---------------|
||o-0--------|-(0)--------|-0--------|-(0)---------------|
||-----------|------------|----------|--------2b5--(2)---|


  C5 N.C.         D5 N.C.         D5EbN.C.D5 N.C.  C5 N.C.
          PM--|           PM--|                       PM--------|
|---------------|---------------|----------------|-----------------||
|---------------|---------------|----------------|----------------o||
|-5-------------|-7-------------|-7s8-----7------|-5---------------||
|-5-------------|-7-------------|-7s8-----7------|-5---------------||
|----0-0--0-0-0-|----0-0--0-0-0-|-----0-0----0-0-|----0-0-0-0-0-0-o||
|---------------|---------------|----------------|-----------------||


  C5 N.C.         D5 N.C.         D5EbN.C.D5 N.C.
          PM--|           PM--|                              PM----------|
|---------------|---------------|----------------------|-------------------||
|---------------|---------------|----------------------|-------------------||
|-5-------------|-7-------------|-7s8-----7----[7]b8.5-|-(7)-5-------------||
|-5-------------|-7-------------|-7s8-----7------------|-------7-6-5-------||
|----0-0--0-0-0-|----0-0--0-0-0-|-----0-0----0---------|-------------7-6-5-||
|---------------|---------------|----------------------|-------------------||


 Verse 2
  C5 N.C.         D5 N.C.         D5EbN.C.D5 N.C.  C5 N.C.
          PM--|           PM--|                       PM--------|
|---------------|---------------|----------------|----------------|
|---------------|---------------|----------------|----------------|
|-5-------------|-7-------------|-7s8-----7------|-5--------------|
|-5-------------|-7-------------|-7s8-----7------|-5--------------|
|----0-0--0-0-0-|----0-0--0-0-0-|-----0-0----0-0-|----0-0-0-0-0-0-|
|---------------|---------------|----------------|----------------|


  C5 N.C.         D5 N.C.         D5EbN.C.D5 N.C.  C5 N.C.
                                                      \3
          PM--|           PM--|
|---------------|---------------|----------------|----------|
|---------------|---------------|----------------|----------|
|-5-------------|-7-------------|-7s8-----7------|-5p=0-----|
|-5-------------|-7-------------|-7s8-----7------|-5p=x-----|
|----0-0--0-0-0-|----0-0--0-0-0-|-----0-0----0-0-|----------|
|---------------|---------------|----------------|----------|


  A5  G5                        A5 G5
                              PM
|--------------|------------|---------------|--------|
|--------------|------------|---------------|--------|
|-2---0-(0)----|-(0)--------|---2--0-(0)----|-(0)----|
|-2---0-(0)----|-(0)--------|---2--0-(0)----|-(0)----|
|-0------------|------------|-0-------------|--------|
|-----3-(3)----|-(3)--------|------3-(3)----|-(3)----|


      F5                                  G5         N.C.
                                                       TP
|----------------|-----------------|---------------|----------------||
|----------------|-----------------|------3-(3)----|----------------||
|-0--------------|-----------------|------0-(0)----|----------------||
|-0---3-(3)------|-----------------|------0-(0)----|----------------||
|-----3-(3)------|---3-3-3---3-3-3-|---3-----------|-(17)\----------||
|-3---1-(1)--1-1-|-0-1-1-1-0-1-1-1-|-1-1--3-(3)----|------------5\--||


 Chorus
  A5         A5(typeEm/A  F#m/A      D5/A   F#m/A
  Gtr II
  |           |     |     |           |     |
  /           /     /     /           /     /

|----------|------------|----------|------------------|
|----------|------------|----------|------------------|
|-2--------|-(2)--------|----------|------------------|
|-2--------|-(2)--------|-4--------|-(4)--------------|
|-0--------|-(0)--------|-0--------|-(0)--------------|
|----------|------------|----------|--------2b5--(2)--|


  C5 N.C.         D5 N.C.         D5EbN.C.D5 N.C.
          PM--|           PM--|
|---------------|---------------|----------------|-----5-------------------|
|---------------|---------------|----------------|-------------------------|
|-5-------------|-7-------------|-7s8-----7------|-7h8---8p7p5-7p5---5-----|
|-5-------------|-7-------------|-7s8-----7------|-----------------7---7p5-|
|----0-0--0-0-0-|----0-0--0-0-0-|-----0-0----0-0-|-------------------------|
|---------------|---------------|----------------|-------------------------|


  A5         A5(typeEm/A  F#m/A      D5/A   F#m/A
  Gtr II
  |           |     |     |           |     |
  /           /     /     /           /     /

|----------|------------|----------|------------------|
|----------|------------|----------|------------------|
|-2--------|-(2)--------|----------|------------------|
|-2--------|-(2)--------|-4--------|-(4)--------------|
|-0--------|-(0)--------|-0--------|-(0)--------------|
|----------|------------|----------|--------2b5--(2)--|


  C5 N.C.         D5 N.C.         D5EbN.C.D5 N.C.  C5 N.C.
          PM--|           PM--|                       PM--------|
|---------------|---------------|----------------|----------------|
|---------------|---------------|----------------|----------------|
|-5-------------|-7-------------|-7s8-----7------|-5--------------|
|-5-------------|-7-------------|-7s8-----7------|-5--------------|
|----0-0--0-0-0-|----0-0--0-0-0-|-----0-0----0-0-|----0-0-0-0-0-0-|
|---------------|---------------|----------------|----------------|


  C5 N.C.         D5 N.C.         D5EbN.C.D5 N.C.
          PM--|           PM--|                        PM--------|
|---------------|---------------|----------------|-----------------||
|---------------|---------------|----------------|-----------------||
|-5-------------|-7-------------|-7s8-----7------|-----------------||
|-5-------------|-7-------------|-7s8-----7------|-7-5-------------||
|----0-0--0-0-0-|----0-0--0-0-0-|-----0-0----0-0-|-----7-5---------||
|---------------|---------------|----------------|---------7-6-5-3-||


   Bridge
            E5     N.CG5             N.C.    C5     N.C.
||---------------|-----------------|--------------|----------0----|
||o--------------|-----------------|--------------|--------3------|
||----------9----|----12----(12)\--|---------5----|----0h2--------|
||----------9----|----12----(12)\--|---------5----|---------------|
||o---------7----|----10----(10)\--|---------3----|---------------|
||--0-0-0-0------|-0---------------|-0-0-0-0------|-0-------------|


                                                 1.
          E5     N.CG5             N.C.    C5     N.C(Dsus2)
|--------------|-----------------|--------------|----5----------||
|--------------|-----------------|--------------|------5-------o||
|---------9----|----12----(12)\--|---------5----|--------7------||
|---------9----|----12----(12)\--|---------5----|----------7----||
|---------7----|----10----(10)\--|---------3----|--------------o||
|-0-0-0-0------|-0---------------|-0-0-0-0------|-0-------------||


  2.
  (Dsus2)         C/E        Bm/D       Am/E                B5
  Gtr II
                  |          |          |           |
                  /          /          /           /

|-5-------------|----------|----------|----------|-------------|
|---5-----5-----|----------|----------|----------|-------------|
|-----7-----7---|----------|----------|----------|-------------|
|-------7-------|-5--------|-4--------|-2--------|-(2)------4--|
|---------------|-3--------|-2--------|-0--------|-(0)------2--|
|---------------|----------|----------|----------|-------------|


  C/E        Bm/D             Am/E
  |          |                |                 |
  /          /                /                 /

|----------|----------------|-----------------|----------------|
|----------|----------------|-----------------|----------------|
|----------|----------------|-2-----2-----2---|-2p0---2--------|
|-5--------|-4--------------|-2-----2-----2---|-2---2-2-----4--|
|-3--------|-2--------------|---0-0---0-0---0-|---------0-0-2--|
|----------|------3---(3)b5-|-----------------|----------------|


  C/E        D/F#       Am/E                B5   C/E        D/F#
  |          |          |           |            |          |
  /          /          /           /            /          /

|----------|----------|----------|-------------|----------|-----------------||
|----------|----------|----------|-------------|----------|-----------------||
|----------|----------|----------|-------------|----------|-----------------||
|-5--------|-7--------|-2--------|-(2)------4--|-5--------|-7---------------||
|-3--------|-5--------|-0--------|-(0)------2--|-3--------|-5---------------||
|----------|----------|----------|-------------|----------|------3---(3)b5--||


 Guitar Solo
  B5/F#
  |                          |
  /                          /

  Gtr III
  PM--------------------------------------|
|-------------------------|-------------------------9-12-9-|
|-------------------------|-----------------8-12-10--------|
|-------------------------|-----------6-7-9----------------|
|-------------------6-----|--6--7---9----------------------|
|-------5-----5-7-9---7-9-|--------------------------------|
|-5-7-9---7-9-------------|--------------------------------|
|
| Gtr IV
|-------------------------|--------------------------------|
|-------------------------|--------------------------------|
|-------------------------|--------------------------------|
|-4-----------------------|-(4)---2---------2--------------|
|-2-----------------------|-(2)---0---------0--------------|
|-------------------------|--------------------------------|


   |
   /

|-10----9-10-9-14-9-------12-9-10-|
|----10-------------12-10---------|
|---------------------------------|
|---------------------------------|
|---------------------------------|
|---------------------------------|
|
|---------------------------------|
|---------------------------------|
|---------------------------------|
|--4------------------------------|
|--2------------------------------|
|---------------------------------|


  B5/F#
   |                        |                         |
   /                        /                         /
[ Tab from: http://www.guitartabs.cc/tabs/o/osbourne_ozzy/centre_of_eternity_tab.html ]
   ~~~~~
|-15b17--------15pb17r14-|-12h14p12-10s9-14p9----9-|--7h=9p==7------9p5-----|
|------------------------|--------------------10---|-----------10-7-----7---|
|------------------------|-------------------------|----------------------6-|
|------------------------|-------------------------|------------------------|
|------------------------|-------------------------|------------------------|
|------------------------|-------------------------|------------------------|
|
|------------------------|-------------------------|------------------------|
|------------------------|-------------------------|------------------------|
|------------------------|-------------------------|------------------------|
|-(4)---2---2------------|--4----------------------|-(4)---2--------2-------|
|-(2)---0---0------------|--2----------------------|-(2)---0--------0-------|
|------------------------|-------------------------|------------------------|


  B5/F#
  |                          |
  /                          /

            PM        PM|
|-------------------------|----------------------|
|-------------------------|-------[5]s7-7h10p7---|
|-7b9r(7)-6---6b7r(6)---6-|-[7]s9----------------|
|-----------9---------9---|----------------------|
|-------------------------|----------------------|
|-------------------------|----------------------|
|
|-------------------------|----------------------|
|-------------------------|----------------------|
|-------------------------|----------------------|
|-4-----------------------|-(4)-2----------2-----|
|-2-----------------------|-(2)-0----------0-----|
|-------------------------|----------------------|


                ~~~~~
|-----------------------|--------------10-12-10---------|
|-12b13r==(12)-12b13----|-----10-12-13----------13-12---|
|-----------------------|-------------------------------|
|-----------------------|-------------------------------|
|-----------------------|-------------------------------|
|-----------------------|-------------------------------|
|
|-----------------------|-------------------------------|
|-----------------------|-------------------------------|
|-----------------------|-------------------------------|
|--7--------------------|-(7)--5--------5---------------|
|--5--------------------|-(5)--3--------3---------------|
|-----------------------|-------------------------------|


  D5                              C5
  Gtr IV
   |                            | |        |
   /                            / /        /

                                           ~~~
|-----------------------------|----------------------|
|-12b13r==(12)p10s8-10-8------|-8--------------------|
|------------------------10-9-|---9----9-------------|
|-----------------------------|-----10---------------|
|-----------------------------|----------/12---(12)\-|
|-----------------------------|----------------------|


  D5                    C5
  |                   |  |      |
  /                   /  /      /

|-------------------|-----------------------|
|-------------------|-----------------------|
|-------------------|-----------------------|
|---------------7---|-9------10-7---/12-9---|
|-8-7----10-7-----8-|---10-7------8---------|
|-----10------8-----|-----------------------|


  D5
  |        |       |      |    |               |        |
  /        /       /      /    /               /        /

|----------------------|----------------------------------------|
|----------------------|----------------------13p10----15p12----|
|-9-------10------12-9-|-14p10-----16p12------------10-------12-|
|---10-------12-9------|--------12-------(14)-------------------|
|------12--------------|----------------------------------------|
|----------------------|----------------------------------------|


  F5                  Eb5
   |     |     |    | |     |   |
   /     /     /    / /     /   /

   TP  TP  TP  TP   TP  TP  TP  TP
|-13--15--11--10--|-8--15--11--10---|
|-----------------|-----------------|
|-----------------|-----------------|
|-----------------|-----------------|
|-----------------|-----------------|
|-----------------|-----------------|


  F5                  Eb5            F5
   |     |     |    | |     |   |     |             |             |
   /     /     /    / /     /   /     /             /             /

   TP  TP  TP  TP   TP  TP  TP  TP
|-13--15--11--10--|-8--15--11--10--|-11p10-11-13p11--13-15p13-15-16p15-16-|
|-----------------|----------------|--------------------------------------|
|-----------------|----------------|--------------------------------------|
|-----------------|----------------|--------------------------------------|
|-----------------|----------------|--------------------------------------|
|-----------------|----------------|--------------------------------------|


  F5  Eb5                            F5
    | |                |        |     |        |              |
    / /                /        /     /        /              /

|-/20--18-16p15----16h18p15--------|-------------------------------|
|---------------17----------16-----|-------------------------------|
|------------------------------17--|----------15pb17r(15)-------15-|
|----------------------------------|-15-17-18-------------18-17----|
|----------------------------------|-------------------------------|
|----------------------------------|-------------------------------|


   |    |                   |
   /    /                   /

|--------------------------15-16-20-20b22.5--||
|-----------------15-16-18-------------------||
|--------15-16-17----------------------------||
|-15-18--------------------------------------||
|--------------------------------------------||
|--------------------------------------------||


 Pre-Verse
  C5       N.C.                     D5                 N.C.
  Gtr IV
   >
|-20b22.5----20b22.5----20b22.5---|-(20)pb22.5-20b22.5-----20b22.5-----20b22.5-|
|---------------------------------|--------------------------------------------|
|---------------------------------|--------------------------------------------|
|---------------------------------|--------------------------------------------|
|---------------------------------|--------------------------------------------|
|---------------------------------|--------------------------------------------|
|
| Gtr III
|                     PM--------|                                  PM--|
|---------------------------------|--------------------------------------------|
|---------------------------------|--------------------------------------------|
|--5------------------------------|---7----------------------------------------|
|--5------------------------------|---7----------------------------------------|
|----------0--0-------0--0------0-|--------------------0-0---------0-0--0------|
|---------------------------------|--------------------------------------------|


  D5         EbN.C.      D5 N.C.  C5 N.C.
|-(20)pb22.5---20b22.5----------|---------------|
|-------------------------------|---------------|
|-------------------------------|---------------|
|-------------------------------|---------------|
|-------------------------------|---------------|
|-------------------------------|---------------|
|
|                                         PM--|
|-------------------------------|---------------|
|-------------------------------|---------------|
|---7s=======8-----------7------|-5-------------|
|---7s=======8-----------7------|-5-------------|
|---------------0------0----0-0-|----0-0--0-0-0-|
|-------------------------------|---------------|


  C5 N.C.          D5 N.C.
  Gtr III
     PM--------|      PM--------|
|----------------|----------------|
|----------------|----------------|
|-5--------------|-7--------------|
|-5--------------|-7--------------|
|----0-0-0-0-0-0-|----0-0-0-0-0-0-|
|----------------|----------------|


  D5EbN.C.D5 N.C.
|----------------|-----------------------------|
|----------------|-----------------------------|
|-7s8-----7----5h|=7p5p0---------[7]p5p0-------|
|-7s8-----7------|-------[7]p5p0---------7p5p0-|
|-----0-0----0---|-----------------------------|
|----------------|-----------------------------|


  C5 N.C.         D5 N.C.         D5EbN.C.D5 N.C.  C5 N.C.
          PM--|           PM--|                            PM--|
|---------------|---------------|----------------|---------------|
|---------------|---------------|----------------|---------------|
|-5-------------|-7-------------|-7s8-----7------|-5-------------|
|-5-------------|-7-------------|-7s8-----7------|-5-------------|
|----0-0--0-0-0-|----0-0--0-0-0-|-----0-0----0-0-|----0-0--0-0-0-|
|---------------|---------------|----------------|---------------|


  C5 N.C.          D5 N.C.          D5EbN.C.D5 N.C.
     PM--------|      PM--------|
|----------------|----------------|----------------|-----------------||
|----------------|----------------|----------------|-----------------||
|-5--------------|-7--------------|-7s8-----7--5p0-|---7p4p0---------||
|-5--------------|-7--------------|-7s8-----7------|-5-------5p0-----||
|----0-0-0-0-0-0-|----0-0-0-0-0-0-|-----0-0--------|-------------2---||
|----------------|----------------|----------------|---------------3-||


 Verse 3
  C5 N.C.         D5 N.C.         D5EbN.C.D5 N.C.  C5 N.C.
          PM--|           PM--|                       PM--------|
|---------------|---------------|----------------|----------------|
|---------------|---------------|----------------|----------------|
|-5-------------|-7-------------|-7s8-----7------|-5--------------|
|-5-------------|-7-------------|-7s8-----7------|-5--------------|
|----0-0--0-0-0-|----0-0--0-0-0-|-----0-0----0-0-|----0-0-0-0-0-0-|
|---------------|---------------|----------------|----------------|


  C5 N.C.         D5 N.C.         D5EbN.C.D5 N.C.  C5 N.C.
          PM--|           PM--|
|---------------|---------------|----------------|----------------|
|---------------|---------------|----------------|----------------|
|-5-------------|-7-------------|-7s8-----7------|-5--------------|
|-5-------------|-7-------------|-7s8-----7------|-5--/14---------|
|----0-0--0-0-0-|----0-0--0-0-0-|-----0-0----0-0-|---------12\----|
|---------------|---------------|----------------|----------------|


  A5  G5                        A5 G5
                              PM
|--------------|------------|---------------|--------|
|--------------|------------|---------------|--------|
|-2---0-(0)----|-(0)--------|---2--0-(0)----|-(0)----|
|-2---0-(0)----|-(0)--------|---2--0-(0)----|-(0)----|
|-0------------|------------|-0-------------|--------|
|-----3-(3)----|-(3)--------|------3-(3)----|-(3)----|


      F5                                G5         N.C.
                                                    \4
|--------------|-----------------|---------------|--------||
|--------------|-----------------|---------------|--------||
|-0------------|-----------------|------0-(0)----|--------||
|-0---3-(3)----|-----------------|------0-(0)----|--------||
|-----3-(3)----|---3-3-3---3-3-3-|---3-----------|-(0)----||
|-3---1-(1)----|-0-1-1-1-0-1-1-1-|-1-1--3-(3)----|--0-----||


 Out-Chorus
  A5         A5(typeEm/A  F#m/A      D5/A   F#m/A
  Gtr II
  |           |     |     |           |     |
  /           /     /     /           /     /

|----------|------------|----------|------------------|
|----------|------------|----------|------------------|
|-2--------|-(2)--------|----------|------------------|
|-2--------|-(2)--------|-4--------|-(4)--------------|
|-0--------|-(0)--------|-0--------|-(0)--------------|
|----------|------------|----------|--------2b5--(2)--|


  C5 N.C.         D5 N.C.         D5EbN.C.D5 N.C.
          PM--|           PM--|
|---------------|---------------|----------------|-----5-------------------|
|---------------|---------------|----------------|-------------------------|
|-5-------------|-7-------------|-7s8-----7------|-7h8---8p7p5-7p5---5-----|
|-5-------------|-7-------------|-7s8-----7------|-----------------7---7p5-|
|----0-0--0-0-0-|----0-0--0-0-0-|-----0-0----0-0-|-------------------------|
|---------------|---------------|----------------|-------------------------|


  A5         A5(typeEm/A  F#m/A      D5/A   F#m/A
  Gtr II
  |           |     |     |           |     |
  /           /     /     /           /     /

|----------|------------|----------|------------------|
|----------|------------|----------|------------------|
|-2--------|-(2)--------|----------|------------------|
|-2--------|-(2)--------|-4--------|-(4)--------------|
|-0--------|-(0)--------|-0--------|-(0)--------------|
|----------|------------|----------|--------2b5--(2)--|


  C5 N.C.         D5 N.C.
          PM--|           PM      T
|---------------|----------------------|
|---------------|----------------------|
|-5-------------|-7--------------------|
|-5-------------|-7---------5s12h17p12-|
|----0-0--0-0-0-|----0-0--0------------|
|---------------|----------------------|


   T     T     T     T     T     T       T     T     T     T ~
|-------------------------------------|---------------------------|
|-------------------------------------|---------------------------|
|-------------------------------------|---------------------------|
|-17p12h17p10h17p12-17p12h17p10h17p12-|-17p12h17p10h17p10h17p9----|
|-------------------------------------|---------------------------|
|-------------------------------------|---------------------------|


  A5         A5(typeEm/A  F#m/A      D5/A   F#m/A
  Gtr II
  |           |     |     |           |     |
  /           /     /     /           /     /

|----------|------------|----------|------------------|
|----------|------------|----------|------------------|
|-2--------|-(2)--------|----------|------------------|
|-2--------|-(2)--------|-4--------|-(4)--------------|
|-0--------|-(0)--------|-0--------|-(0)--------------|
|----------|------------|----------|--------2b5--(2)--|


  C5 N.C.         D5 N.C.
          PM--|           PM--|    T     T          T     T  T     T
|---------------|---------------|-19p12h19p9h12h14h19p12h19----------|
|---------------|---------------|---------------------------19p12h19-|
|-5-------------|-7-------------|------------------------------------|
|-5-------------|-7-------------|------------------------------------|
|----0-0--0-0-0-|----0-0--0-0-0-|------------------------------------|
|---------------|---------------|------------------------------------|


   T     T            T        T
|-19p12h19p14p12-----24p14p10-----------|
|-----------------------------24p14p10--|
|----------------h14--------------------|
|---------------------------------------|
|---------------------------------------|
|---------------------------------------|


  A5         A5(typeEm/A  F#m/A      D5/A   F#m/A
  Gtr II
  |           |     |     |           |     |
  /           /     /     /           /     /

|----------|------------|----------|------------------||
|----------|------------|----------|------------------||
|-2--------|-(2)--------|----------|------------------||
|-2--------|-(2)--------|-4--------|-(4)--------------||
|-0--------|-(0)--------|-0--------|-(0)--------------||
|----------|------------|----------|--------2b5--(2)--||


 Outro
     N.C.         D  N.C.         Eb N.C.D  N.C.  C  N.C.
                  |               |      |        |
                  /               /      /        /

          PM--|           PM--|      PM|    PM|           PM--|
|---------------|---------------|---------------|---------------|
|---------------|---------------|---------------|---------------|
|-5-------------|-7-------------|-8------7------|-5-------------|
|-5-------------|-7-------------|-8------7------|-5-------------|
|----0-0--0-0-0-|----0-0--0-0-0-|----0-0----0-0-|----0-0--0-0-0-|
|---------------|---------------|---------------|---------------|


                                   1.
    C  N.C.         D  N.C.         Eb N.C.D  N.C.  C  N.C.
    |               |               |      |        |
    /               /               /      /        /

            PM--|           PM--|      PM|    PM|           PM--|
||----------------|---------------|---------------|-----------------||
||o---------------|---------------|---------------|----------------o||
||--5-------------|-7-------------|-8------7------|-5---------------||
||--5-------------|-7-------------|-8------7------|-5---------------||
||o----0-0--0-0-0-|----0-0--0-0-0-|----0-0----0-0-|----0-0--0-0-0--o||
||----------------|---------------|---------------|-----------------||


  2.
  Eb N.C.D  N.C.  Eb N.C.D  N.C.  Eb N.C.D  N.C.  C  A5
  |      |        |      |        |      |        |
  /      /        /      /        /      /        /

     PM|    PM|      PM|    PM|      PM|    PM|
|---------------|---------------|---------------|--------------------*|
|---------------|---------------|---------------|--------------------*|
|-8------7------|-8------7------|-8------7------|-5------------------*|
|-8------7------|-8------7------|-8------7------|-5---2-----2--------*|
|----0-0----0-0-|----0-0----0-0-|----0-0----0-0-|-----0-----0--------*|
|---------------|---------------|---------------|--------------------*|
|
|                                                    Gtr III
|---------------|---------------|---------------|----17----17--------*|
|---------------|---------------|---------------|----20b22-20b22-----*|
|---------------|---------------|---------------|--------------------*|
|---------------|---------------|---------------|--------------------*|
|---------------|---------------|---------------|--------------------*|
|---------------|---------------|---------------|--------------------*|



Comments