Osbourne Ozzy - Believer Chords & Tabs

 

Believer Chords & Tabs

Osbourne Ozzy Chords & Tabs

Version: 1 Type: Bass Tab 0 ratings
1 star 2 stars 3 stars 4 stars 5 stars
comments

Believer Bass Tab

=== Crankster's Ozzy Page
=== http://crankster.cjb.net
=== crankster@mailexcite.com

Transcriber - Ryan Silke 

Believer
Ozzy Osbourne- Diary Of A Madman


 Intro
 Gb-------|-------------------
 Db-------|-------------------
 Ab-------|-----7-------------
 Db--12/--|--0-----0--7-7-7/--

 Verse x2
 Gb-----------------------------------------------------------
 Db-----------------------------------------------------------
 Ab-----7-7-7--7-7--9h10-9h10-9p7--5----7--7-7-7--7-7------5--
 Db--0---------------------------------------------------7-----

 Gb-----------------------------------------------------9-9------
 Db---------------------------------------------------------8-8--
 Ab-----7-7-7--7-7--9h10-9h10-9p7--5----7--7-7-7--7-7------------
 Db--0-----------------------------------------------------------

 repeat Intro and Verse

 Interlude x 8
 Gb-----------------------
 Db----------------4------
 Ab------------------4----
 Eb--0-1--0h2-2-2------2--

    "O-kay  Ba-by"
 Gb----------------------
 Db----------------------
 Ab--5---5---5---5h7-\---
 Eb----------------------

 repeat Intro

 Gb--4-4-4p2--2---4-4p2-\---------4-4-4p2-----------
 Db----------------------------------------2----2---
 Ab-------------------------------------------------
 Eb------------------------3--5--------------0------
         
 Gb--------------------------------------------------
 Db--------------------------------------------------
 Ab--1--1--1--1--------------3--3--3--3--------------
 Eb--------------2--2--2--2--------------2--2--2--2--
[ Tab from: http://www.guitartabs.cc/tabs/o/osbourne_ozzy/believer_btab.html ]
 Gb--------------------------------------------------
 Db--------------------------------------------------
 Ab--1--1--1--1--------------0--0--0--0---2--3-------
 Eb--------------2--2--2--2--------------------------

 Solo
 Gb------------------------------------------------------------------------------------
 Db--------------------------------------------5-3h5-5---------------------------------
 Ab--/7-7--7-----/7-7-7-7---/10-10-10-------------------5-5-5-5-5--5-5--3--3-3-3-3--3--
 Eb-----------0------------------------3-3-3-3-----------------------------------------

 Gb---------------------------------------------------------------------------------------
 Db------------------------------------------5-5-3h5--------------------------------------
 Ab-----/7-7-7-7----/7-7-7-7---/10-10-10-------------------5-5-5-5-5--5-5--3--3-3-3-3--3--
 Eb--0-----------0-0---------------------3-3---------3------------------------------------

 Gb---------------------------------------------------------------------------------------
 Db------------------------------------------5-5-3h5--------------------------------------
 Ab-----/7-7-7-7----/7-7-7-7---/10-10-10-------------------5-5-5-5-5--5-5--3--3-3-3-3--3--
 Eb--0-----------0-0---------------------3-3---------3------------------------------------

 Gb--------------------------------------------------
 Db--------------------------------------------------
 Ab--1--1--1--1--------------3--3--3--3--------------
 Eb--------------2--2--2--2--------------2--2--2--2--

 Gb-------------------------------------------------------
 Db-------------------------------------------------------
 Ab--1--1--1--1--------------0--0--0--0---2--3-3--2-------
 Eb--------------2--2--2--2---------------------------3---

 repeat Verse
 repeat Intro for Outro 



Comments