Osbourne Ozzy - Bark At The Moon Chords & Tabs

 

Bark At The Moon Chords & Tabs

Osbourne Ozzy Chords & Tabs

Version: 1 Type: Bass Tab 0 ratings
1 star 2 stars 3 stars 4 stars 5 stars
comments

Bark At The Moon Bass Tab

=== Crankster's Ozzy Page
=== http://crankster.cjb.net
=== crankster@mailexcite.com

Transcriber - Ryan Silke

Bark At The Moon
Ozzy Osbourne- Bark At The Moon


 Intro
 G----------------------------------------------------------
 D----------------------------------------------------------
 A--------R-------R-----2-------R-------R--1-0-1-3-1-0------
 E--3-5-------3-5---1-3---3-5-------3-5----------------3-1--

 Verse
 G-------------------------------------------------------------------
 D-------------------------------------------------------------------
 A--0-0-0-0-0-0-0-0-0-0-0-0-0-0-0-0-0-0-0-0-0-0-0-0-0-0-0-0-----2----
 E----------------------------------------------------------1-3---3--

 G--------------------------------------------------
 D--------------------------------------------------
 A--0-0-0-0-0-0-0-0-0-0-0-0-0-0-0--1-0-1-3-1-0------
 E---------------------------------------------3-1--

 Pre-Chorus
 G-----------------------------------------------------
 D----------44--------44--------44---------------------
 A-----------------------------------------------------
 E--2-2-2-2-2-2-2-2-2-2-2-2-2-2-2-2-2-2-2-2-2-2-2-2-2--

 Chorus                                          "Bark at the Moon.."
 G-------------------------------------------------------------------
 D----------44--------44---------------------------------------------
 A-------------------------------------------------------Hold--------
 E--2-2-2-2-2-2-2-2-2-2-2-2-2-2-0-0-0-0-0-0--12/-0-------------------

 Verse
 Pre-Chorus
 Chorus

 Bridge x 2 
 G-------------------------------------------------
 D--------------------------------------------2----
 A--0--0--3-5--2----------------------------2---2--
 E---------------5-3--3-3-3-3--3-3--1-1--1---------

 # 1
 G-------------------------------------
 D--------------------------3---5-3----
 A----------------------3h5---5-----5--
 E--0-1---0-1---0-3--------------------
[ Tab from: http://www.guitartabs.cc/tabs/o/osbourne_ozzy/bark_at_the_moon_btab.html ]
 # 2
 G--------------------------------------
 D------------------------------3----5--
 A--------------------------5-----5-----
 E--0-1---0-1---0-3------3----3---------

 # 3
 G---------------------------------
 D-----------------------/5--3-----
 A------------------------------5--
 E--0-1---0-1---0-3----------------

 # 4
 G-------------------------------------------------------5-------5----
 D-------3--2-0--0-------------------------------------5---5---5---5--
 A------------------3-1---1-1-1-1-1--1-3---3-3-3-3-3-3-------3--------
 E--0-1---------------------------------------------------------------

 Solo
 G------------------------------------------------------------------------------------
 D-----------------------------------------------------------------------------7------
 A--5--5-5--5--5--5-3-3--5--5-5--5--5-5-3---1--1-1--1-1-1--0-----------------7---7----
 E----------------------------------------5------------------3--3-3--5-6-5-5-------5--

 G----------------------------------------------------------------------------7-------7----
 D-----------------------------------------------------------3------------------7---7---7--
 A--5--5-5--5--5--5-3-3--5--5-5--5--5-5-3---1--1-1--1-1-1--3----5--5-5--5--5------5--------
 E----------------------------------------5------------------------------------------------

 End solo
 G---------------------------------------------------------------------------
 D---------------------------------------------------------------------------
 A--1--1-1--1-1-1-1-0--3--3-3--3-3-3---0--0-0--0-1--1-1--1-2--2-2--2-3--3-3--
 E-----------------------------------3---------------------------------------

 Intro again
 G----------------------------------------------------------
 D----------------------------------------------------------
 A--------R-------R-----2-------R-------R--1-0-1-3-1-0------
 E--3-5-------3-5---1-3---3-5/-------3-5----------------3-1--

 Verse
 Pre-chorus
 Chorus
 Bridge x the rest of song (Outro)



Comments