Orson - No Tomorrow Chords & Tabs

 

No Tomorrow Chords & Tabs

Orson Chords & Tabs

Version: 2 Type: Tab

No Tomorrow Tab

   
-------------------------------------------------------------------------------
			     NO TOMORROW - Orson
-------------------------------------------------------------------------------
Tabbed by: Fred Heeks
Email: fred.heeks@virgin.net

Tuning: Standard

I've broken the tab down in to 'parts' as these just repeat throughout the song:

Intro Part - Repeat this 8 times
This first part needs a guitar with plenty of sustain as it is a single note
bent up and released three times.
e|-------------------------------
B|-------------------------------
G|-10 b11 r10 b11 r10 b11 r10----
D|-------------------------------
A|-------------------------------
E|-------------------------------

Barre Chord Part A - repeat twice
  D#  Bb  B  B   D#  Bb  B  B   D#  Bb  B  B   G#
--6---6---7--7---6---6---7--7---6---6---7--7---4--|
--8---6---7--7---8---6---7--7---8---6---7--7---4--|
--8---7---8--8---8---7---8--8---8---7---8--8---5--|
--8---8---9--9---8---8---9--9---8---8---9--9---6--|
--6---8---9--9---6---8---9--9---6---8---9--9---6--|
--6---6---7--7---6---6---7--7---6---6---7--7---4--|

Bend It! Part 1

e|------9-b11-r9-----9-b11-r9-----9-b11-r9-----------------------------------|
B|----7------------7------------7----------9---------------------------------|
G|--8------------8------------8----------------------------------------------|
D|---------------------------------------------------------------------------|
A|---------------------------------------------------------------------------|
E|---------------------------------------------------------------------------|

Barre Chord Part A again - Repeated twice again

Chorus
[ Tab from: http://www.guitartabs.cc/tabs/o/orson/no_tomorrow_tab_ver_2.html ]
    B   B       C#  C#      C#  C#      D#m D#m   X2 then B   B    C# C#    G#
e|--7---7---X---4---4---X---4---4---X----6---6---X---   --7--7--X--4--4--X--4|
B|--7---7---X---6---6---X---6---6---X----7---7---X---   --7--7--X--6--6--X--4|
G|--8---8---X---6---6---X---6---6---X----8---8---X---   --8--8--X--6--6--X--5|
D|--9---9---X---6---6---X---6---6---X----8---8---X---   --9--9--X--6--6--X--6|
A|--9---9---X---4---4---X---4---4---X----6---6---X---   --9--9--X--4--4--X--6|
E|--7---7---X---4---4---X---4---4---X----6---6---X---   --7--7--X--4--4--X--4|


Barre Chord Part A again - only once this time then
guitar 2 plays D#, D#, D#, G# once then guitar 1 kicks in with...

Bend It! Part 2 (while guitar 2 does another D#, D#, D#, G#) 

e|-----------------------------------------------------------------------------------------|
B|----7-9-b11-r9-7-h9-p7---7-9-b11-r9-7-h9-p7---7-9-b11-r9-7-h9-p7-------------------------|
G|--8--------------------8--------------------8--------------------8-8-6-8-8-6-8-8-6-8-8-6-|
D|-----------------------------------------------------------------------------------------|
A|-----------------------------------------------------------------------------------------|
E|-----------------------------------------------------------------------------------------|

Then back in to the chorus - with gusto !!

Everything stops for:

Everybody here is starin'
At the outfit that your wearin'
Love it when they check you out...

Cover's only twenty bucks,
And even if the DJ sucks,
It's time to turn the spotlight ONNNNNNNNNNNNNNN

Then finish with a couple of chorus parts... Play it loud and enjoy !!


| /  slide up
| \  slide down
| bn bend to n
| rn release to n 
| h  hammer-on
| p  pull-off
| ~  vibrato
| +  harmonic
| x  Mute note
===============================================================================