Orson - No Tomorrow Chords & Tabs

 

No Tomorrow Chords & Tabs

Orson Chords & Tabs

Version: 1 Type: Tab

No Tomorrow Tab

   
-------------------------------------------------------------------------------
			     No Tomorow - Orson
-------------------------------------------------------------------------------
Tabbed by:mattsem     http://www.orsonband.com/orsonband.htm
Email:

Tuning: normal        It's my first tab and i'm only a kid so go easy on me

skip intro

verse
e|-----------------------------------------------------------------------------|
B|-----------------------------------------------------------------------------|
G|---8--------------------8------------------8-----------------6-6-6-6-6-------|
D|---8----8-----9-9-------8----8-----9-9-----8----8----9-9-----6-6-6-6-6-------| x2
A|---6----8-----9-9-------6----8-----9-9-----6----8----9-9-----4-4-4-4-4-------|
E|--------6-----7-7------------6-----7-7----------6----7-7---------------------|


Pre - chorus
e|----------------------11s9---------------------------------------------------|
B|--------------7---------------------------6-6-6-6-6--------------------------|
G|----8-------------------------------x3----6-6-6-6-6--------------------------|
D|----8-------------------------------------4-4-4-4-4--------------------------|
A|----6------------------------------------------------------------------------|
E|-----------------------------------------------------------------------------|
repeat verse once


 Chorus
[ Tab from: http://www.guitartabs.cc/tabs/o/orson/no_tomorrow_tab.html ]
e|-----------------------------------------------------------------------------|
B|-----------------------------------------------------------------------------|
G|------------------------9-9---8-8----------------------8---------------------|
D|---9--9-------11--11----9-9---8-8-----x2  then play  --8--8---6--------------|
A|---9--9-------11--11----7-7---6-6----------------------6--8---6--------------|
E|---7--7-------9----9--------------------------------------6---4--------------|
 repeat pre - chorus

short strums of chorus
over the chorus play this

e|--------------------------------|
B|----4s7--11-9-7-----------------|
G|-----------------?10?-------x3--|
D|--------------------------------|
A|--------------------------------|
E|--------------------------------|Chorus repeated

ends on

e|------------------------------------------------------------------------------|
B|------------------------------------------------------------------------------|
G|------------------------------------------------------------------------------|
D|---6--------------------------------------------------------------------------|
A|---6--------------------------------------------------------------------------|
E|---4--------------------------------------------------------------------------|
http://www.orsonband.com/orsonband.htm

| /  slide up
| \  slide down
| h  hammer-on
| p  pull-off
| ~  vibrato
| +  harmonic
| x  Mute note
===============================================================================
-------------------------------