Orson - No Tomorrow Chords & Tabs

 

No Tomorrow Chords & Tabs

Orson Chords & Tabs

Version: 2 Type: Bass Tab

No Tomorrow Bass Tab

   
----------------------------------------------------------------------------
			     Orson - No Tomorrow
----------------------------------------------------------------------------

Tabbed By : Dinkydaisy
e-mail: iluv_kittens@hotmail.com

This is my first tab, I don't know if it's 100% but it sounds good when I play it like 
Comment if there's summat bad with it =D

Tuning: EADG

00:19
G|--------------------------------------------------------------------------|
D|-1------1------1----------------------------------------------------------|
A|--1-2-2--1-2-2--1-2-2-----------------------------------------------------|
E|-----------------------4-4-4-4-4-4----------------------------------------|

G|--------------------------------------------------------------------------|
D|-1------1------1----------------------------------------------------------|
A|--1-2-2--1-2-2--1-2-2-----------------------------------------------------|
E|-----------------------4-4-4-4-4-4-4-4-4-4-4-4----------------------------|

G|--------------------------------------------------------------------------|
D|-1------1------1----------------------------------------------------------|
A|--1-2-2--1-2-2--1-2-2-----------------------------------------------------|
E|-----------------------4-4-4-4-4-4----------------------------------------|

G|--------------------------------------------------------------------------|
D|-1------1------1----------------------------------------------------------|
A|--1-2-2--1-2-2--1-2-2-----------------------------------------------------|
E|-----------------------4-4-4-4-4-4----------------------------------------|

G|--------------------------------------------------------------------------|
D|-1------1------1----------------------------------------------------------|
A|--1-2-2--1-2-2--1-2-2-----------------------------------------------------|
E|-----------------------4-4-4-4-4-4-4-4-4-4-4-4----------------------------|

01:02
G|--------------------------------------------------------------------------|
D|--------------------------------------------------------------------------|
A|-2-2-4-4-4-4-4-6-6-6--2-2-4-4-4-4-4-6-6-6---------------------------------|
E|--------------------------------------------------------------------------|
[ Tab from: http://www.guitartabs.cc/tabs/o/orson/no_tomorrow_btab_ver_2.html ]
G|--------------------------------------------------------------------------|
D|--------------------------------------------------------------------------|
A|-2-2-4-4-4-4-4-6----------------------------------------------------------|
E|-----------------6-4--4-4-4-4-4-4-4-4-4-4-4-4-----------------------------|

01:17
G|--------------------------------------------------------------------------|
D|-1------1------1----------------------------------------------------------|
A|--1-2-2--1-2-2--1-2-2-----------------------------------------------------|
E|-----------------------4-4-4-4-4-4----------------------------------------|

G|--------------------------------------------------------------------------|
D|-1------1------1----------------------------------------------------------|
A|--1-2-2--1-2-2--1-2-2-----------------------------------------------------|
E|-----------------------4-4-4-4-4-4----------------------------------------|

G|--------------------------------------------------------------------------|
D|-1------1------1----------------------------------------------------------|
A|--1-2-2--1-2-2--1-2-2-----------------------------------------------------|
E|-----------------------4-4-4-4-4-4-4-4-4-4-4-4----------------------------|

01:42
G|--------------------------------------------------------------------------|
D|--------------------------------------------------------------------------|
A|-2-2-4-4-4-4-4-6-6-6--2-2-4-4-4-4-4-6-6-6---------------------------------|
E|--------------------------------------------------------------------------|

G|--------------------------------------------------------------------------|
D|--------------------------------------------------------------------------|
A|-2-2-4-4-4-4-4-6----------------------------------------------------------|
E|-----------------6-4--4-4-4-4-4-4-4-4-4-4-4-4-----------------------------|

Vocals and drums

02:13
G|--------------------------------------------------------------------------|
D|--------------------------------------------------------------------------|
A|-2-2-4-4-4-4-4-6-6-6--2-2-4-4-4-4-4-6-6-6---------------------------------|x3
E|--------------------------------------------------------------------------|

G|--------------------------------------------------------------------------|
D|--------------------------------------------------------------------------|
A|-2-2-4-4-4-4-4-6----------------------------------------------------------|
E|-----------------6-4--4-4-4-4-4-4-4-4-4-4-4-4-4-4-4-4-4-4-----------------|

End

| /  slide up
|   slide down
| h  hammer-on
| p  pull-off
| ~  vibrato
| +  harmonic
| x  Mute note
============================================================================