Orson - No Tomorrow Chords & Tabs

 

No Tomorrow Chords & Tabs

Orson Chords & Tabs

Version: 1 Type: Bass Tab

No Tomorrow Bass Tab

   
Tabbed By : rich glover
e-mail: richiegluv01@hotmail.com

Tuning: e a d g

lets go 2 a rave         repeat until chorus


G|-------------------------------------------------------------------------------------|
D|-1-------1------1--------------------------------------------------------------------|
A|--1-2-2---1-2-2--1-2-2---------------------------------------------------------------|
E|-----------------------4-4-4-4-4-----------------------------------------------------|

chorus
[ Tab from: http://www.guitartabs.cc/tabs/o/orson/no_tomorrow_btab.html ]
G|---------------------------------------------------------------------------------------|
D|---------------------------------------------------------------------------------------|
A|-2-2-4-4-4-5-5--6-6-6------------------------------------------------------------------|
E|---------------------------------------------------------------------------------------|
bridge

G|--------------------------|
D|-\12 2-2-4-4-4-5-5-6-6-6--|
A|--------------------------|
E|--------------------------|

 please rate this i need 2 no how im doin lol