Orphaned Land - Like Fire To Water Chords & Tabs

 

Like Fire To Water Chords & Tabs

Orphaned Land Chords & Tabs

Version: 1 Type: Tab 0 ratings
1 star 2 stars 3 stars 4 stars 5 stars
comments

Like Fire To Water Tab

                        ORPHANED LAND - LIKE FIRE TO WATER
                              ALBUM : EL NORA ALILA

=>transcribed by The Pastor from France

INTRO :
   GUITAR 1 (ACCOUSTIC)
|----0--------------------|
|----0--------------------|
|----0--------------------|
|----2--------3------2----|
|----2--------------------|
|----0----0-0----0-0------|
     v
   GUITAR 2 (DISTO + FADE IN)
|-------------------------------------------------|
|-------------------------------------------------|
|-------------------------------------------------|
|-------------------------------------------------|
|----2--2----2-2-2----2----2-2-2----2-2-2----2----|
|----0--0----0-0-0----0----0-0-0----0-0-0----0----|
     .  .    . . .    .    . . .    . . .    .



RIFF 1 :
|----------------------------------------|
|----------------------------------------|
|----------------------------------------|
|-------------3------2----3-2-0----------|
|----3/5------------------------3-2------|
|----1/3--0-0----0-0----0-----------3----|
          . .    . .    .



RIFF 2 :
|---------------------------------|
|---------------------------------|
|---------------------------------|
|-------------------3-2-----------|
|----2-2222--3/5-----------3-2----|
|----0-0000--1/3--0------0--------|
     . ....       .      .
|--------------------------------------------------------------------------------|
|--------------------------------------------------------------------------------|
|--------------------------------------------------------------------------------|
|-------------------320-------320---------------------------2h3h5p3p2h3h7p3p2----|
|----2-2222--3/5-------320-------32------2h3-2-2h3p2p0---------------------------|
|----0-0000--1/3--0---------0------3--0----------------1~------------------------|
     . ....       .         .         .



RIFF 3 :
|------------------------------|
|------------------------------|
|------------------------------|X4
|------------2h3---------------|
|----2------------2-000-2h3----|
|----0--000--------------------|
        ...         ...
|------------------------------------------------------------------|
|------------------------------------------------------------------|
|-------------------------------------2h3p2p0----------------------|
|---------------------------------------------2h3h5p3p2-2h3p2------|
|----7h8-5h7----7h8-5h7----7h8-5h7----------------------------3----|
|------------5----------7----------8-------------------------------|

|----------------------------------------------------------------|
|----------------------------------------------------------------|
|----------------------------------------------------------------|
|------------------------------------5-3-2-3-2-0-2---------------|
|-------0-1-2-----0-1-2-----0-1-2----5-3-2-3-2-0-2--2h3p2p0h2----|
|----3-0-0-0---1-0-0-0---3-0-0-0---------------------------------|
       . . .     . . .     . . .     . . . . . . .



RIFF 4 :
   GUITAR 1
|--------------------------------|
|--------------------------------|
|--------------------------------|
|--------------------------------|
|-------------2-------------2----|
|----0-0-0-0--0----0-0-0-0--0----|
     . . . .       . . . .

   GUITAR 2
|------------------|-------------------------|
|------------------|-------------------------|
|------------------|-------------------------|
|------------------|-------------------------|
|------------------|-------------------------|
|----0-0-00-0-0----|----0-0-00-0-0-000-00----|
     . . .. . .         . . .. . . ... ..



RIFF 5 :
|-------------------------------------------------------------|
|-------------------------------------------------------------|
|-------------------------------------------------------------|
|--------------------2h3h5p3p2h3h7p3p2------------------------|
|--------2-----2h3-----------------------2h3h5p3p2h3h7p3p2----|
|----0-0---0-0-----0-------------------0----------------------|
     . .   . .     .                   .
|-------------------------------------------|
|-------------------------------------------|
|-------------------------------------------|
|-----------5-5--3-3--2-2--2~----3h5p2h3----|
|------2----5-5--3-3--2-2--2~---------------|
|----0---3----------------------------------|
     .      . .  . .  . .
[ Tab from: http://www.guitartabs.cc/tabs/o/orphaned_land/like_fire_to_water_tab.html ]
END OF RIFF 5 (3RD TIME) :
|-------------------------------------------------------|
|-------------------------------------------------------|
|-------------------------------------------------------|
|----5-5--3-3--2-2----5-5--3-3--2-2----5-5--3-3--2-2----|
|----5-5--3-3--2-2----5-5--3-3--2-2----5-5--3-3--2-2----|
|-------------------------------------------------------|
     . .  . .  . .    . .  . .  . .    . .  . .  . .
|---------------------------------------------------------------------|
|---------------------------------------------------------------------|
|---------------------------------------------------------------------|
|----2---2---2---2----------------------------------------------------|
|----2---2---2---2----------------------------------------------------|
|----0-0-0-0-0-0-0-0--22222222-44444444-55555555-44444444-11111111----|
       .   .   .   .  ........ ........ ........ ........ ........


RIFF 6 :
|-------------------------------------------------|
|-------------------------------------------------|
|-------------------------------------------------|
|-------------------------------------------------|
|-------------2-----------2-----------------------|
|----00000000-0--00000000-0--0h1/5p3-3h4p3p1-0----|
     ........    ........
|-----------------------------------------------------------------------------------|
|-----------------------------------------------------------------------------------|
|-----------------------------------------------------------------------------------|
|-----------2~-3p2p0h2h3----5--5----3--3----------------------------5--5----3--3----|
|---------------------------5--5----3--3-----------2/3-3/5-3/5/7----5--5----3--3----|
|----00000----------------------------------00000-----------------------------------|
     .....                                  .....
|--------------------------------------------------------------------------|
|--------------------------------------------------------------------------|
|--------------------------------------------------------------------------|
|-----------2~~-2-3/5\3-2h3p2h3-----------------------------2-3-------3----|
|-------------------------------2~-2h3p2------2-3-5-----2-5-----2-3-5------|
|----00000-------------------------------1----------3-5--------------------|
     .....
|--------------------------------------|
|--------------------------------------|
|--------------------------------------|
|----2~~-2-3/5\3-2h3p2h3---------------|
|------------------------2~-2h3p2------|
|---------------------------------1----|



RIFF 7 :
   GUITAR 1
|-------------------------------------|
|-------------------------------------|
|-------------------------------------|
|-------------------------------------|
|----2--2-----------------------------|
|----0--0----0--1--3/4----3h4p3--1----|

   GUITAR 2 (SOLO)
|----------------------------------------------------|
|fadein-/17------------------------------------------|
|-----------16p15----15------------------------------|
|-----------------17----16-14-16bh-------------------|
|-------------------------------------13-12----12----|
|-------------------------------------------14-------|
                                       .  .  .  .
|--------------------------------------------------------------|
|-----------------------------18-------------18----------------|
|---------19---------------------17p16p15h16----17p16p15h16----|
|----16bf----br16--14-16bh-------------------------------------|
|--------------------------------------------------------------|
|--------------------------------------------------------------|

|----13-14-17-14-13h14p13------12-14-------------17-------------------|
|--------------------------15-----------------18----18-17-------------|
|------------------------------------------16-------------16----------|
|---------------------------------------14-------------------15-14----|
|---------------------------------------------------------------------|
|---------------------------------------------------------------------|

|---------------------------17bf-18-17----17~~----|
|-------------17bh-17h18p17------------18---------|
|----------16-------------------------------------|
|----14-15----------------------------------------|
|-------------------------------------------------|
|-------------------------------------------------|



RIFF 8 :
|---------------------------------------------------------|
|---------------------------------------------------------|
|---------------------------------------------------------|
|---------------------------------------------------------|
|----2---2---2---2---2h3-----2h3----2---2---2--3-3--------|
|----0-0-0-0---0---0-----2h3--------0-0-0-0-0------3-3----|
       .   .   .   .                  .   .    . . . .



RIFF 9 :
|-------------------------------------------|
|-------------------------------------------|
|-------------------------------------------|
|----2-2------3-3---------------------------|
|----0-0--00--0-0-------2-2------2-2--------|
|-------------------00--0-0--00--0-0--00----|
          ..        ..       ..       ..


OUTRO :
|-----------------------------------------------|
|-----------------------------------------------|
|-------14-16-16h17~-16h17p16-14-14h16-14-14----|
|----14-----------------------------------------|
|-----------------------------------------------|
|-----------------------------------------------|

|------------------------------------------------------------------------------------|
|------------------------------------------------------------------------------------|
|-------12h13--13h14p13h14p13h14p13----13------------------------------a.h.----------|
|----15-----------------------------15----15-14h15p14h15p14-12-12h14~~--14--fadeout--|
|------------------------------------------------------------------------------------|
|------------------------------------------------------------------------------------|

Any corrections or suggestions :
                        => e-mail me  Pastor@Wanadoo.fr
Comments