Ornella Vanoni - L'appuntamento Chords & Tabs

 

L'appuntamento Chords & Tabs

Ornella Vanoni Chords & Tabs

Version: 1 Type: Tab 1 rating
1 star 2 stars 3 stars 4 stars 5 stars
comments

L'appuntamento Tab

   
Ornella Vanoni
L'appuntamento
Ocean's Twelve OST
Tab by simoneperandini@hotmail.com

[Tab Created with TabPlayer 6.0]


 Intro 
 e|----/3-/1-------------------------------------------------------------------|
 B|----------3-----------------------------------------------------------------|
 G|----------------------------------------------------------------------------|
 D|----/5-/3-------------------------------------------------------------------|
 A|----------------------------------------------------------------------------|
 E|----------------------------------------------------------------------------|


 Riff 1
 e|-------3-----5-----5---7-----5-----3----------------------------------------|
 B|---------5-----5-----5---5-----5--------------------------------------------|
 G|-----------5-----5---------5-----5------------------------------------------|
 D|-------5-----5-----5---5-----5-----5----------------------------------------|
 A|----------------------------------------------------------------------------|
 E|----------------------------------------------------------------------------|



[ Tab from: http://www.guitartabs.cc/tabs/o/ornella_vanoni/lappuntamento_tab.html ]
 Riff 2
 e|-------8-------10-------10----12-------10-------8---------------------------|
 B|---------10-------10-------10----10-------10--------------------------------|
 G|------------10-------10-------------10-------10-----------------------------|
 D|-------10------10-------10----10-------10-------10--------------------------|
 A|----------------------------------------------------------------------------|
 E|----------------------------------------------------------------------------|


Intro
Riff1


[Verse] change riff

Riff1                                        Riff2
Ho sbagliato tante volte ormai che lo so già
                                             Riff1
che oggi quasi certamente sto sbagliando su di te 
Riff1                                                Riff2
ma una volta in più che cosa può cambiare nella vita mia...
                                                    Riff1
accettare questo strano appuntamento è stata una pazzia!
                                                 Riff2
Sono triste tra la gente che mi sta passando accanto
                                                  Riff1
ma la nostalgia di rivedere te è forte più del pianto:
                                               Riff2
questo sole accende sul mio volto un segno di speranza.
                                                     Riff1
Sto aspettando quando ad un tratto ti vedrò spuntare in lontananza!




[Chorus]
F            G             C  (C9)
Amore, fai presto, io non resisto...
F            G         C         A            D7
se tu non arrivi non esisto, non esisto, non esisto...



Intro        
Comments