Ornatos Violeta - Chaga Chords & Tabs

 

Chaga Chords & Tabs

Ornatos Violeta Chords & Tabs

Version: 1 Type: Tab 0 ratings
1 star 2 stars 3 stars 4 stars 5 stars
comments

Chaga Tab

   
Ornatos Violeta
Chaga

Intro and Chorus

E|-----------------------------------------------------------------|
B|-----------------------------------------------------------------|
G|-----------------------------------------------------------------|
D|-5-5-4-4-5-5-7-7-5-5-4-4-5-5-7-7-5-5-4-4-5-5-7-7-5-5-4-4-5-5-7-7-|
A|-7-7-7-7-7-7-7-7-7-7-7-7-7-7-7-7-6-6-6-6-6-6-6-6-6-6-6-6-6-6-6-6-|
E|-x-x-x-x-x-x-x-x-x-x-x-x-x-x-x-x-x-x-x-x-x-x-x-x-x-x-x-x-x-x-x-x-|

[ Tab from: http://www.guitartabs.cc/tabs/o/ornatos_violeta/chaga_tab.html ]
E|-----------------------------------------------------------------|
B|-----------------------------------------------------------------|
G|-----------------------------------------------------------------|
D|-5-5-4-4-5-5-7-7-5-5-4-4-5-5-7-7-2-2-4-4-5-5-4-4-2-2-4-4-5-5-4-4-|
A|-5-5-5-5-5-5-5-5-5-5-5-5-5-5-5-5-3-3-3-3-3-3-3-3-3-3-3-3-3-3-3-3-|
E|-x-x-x-x-x-x-x-x-x-x-x-x-x-x-x-x-x-x-x-x-x-x-x-x-x-x-x-x-x-x-x-x-|


If someone know the rest of the tabs of this music, please e-mail me: danka@megamail.pt
Comments