Orient Pearl - Pagsubok Chords & Tabs

 

Pagsubok Chords & Tabs

Orient Pearl Chords & Tabs

Version: 3 Type: Tab 0 ratings
1 star 2 stars 3 stars 4 stars 5 stars
comments

Pagsubok Tab

   
song: pagsubok
band/artist: orient pearl
tabbed by: jumar alvin rey [dupax del sur, nueva vizcaya]
date: october 4, 2005

"this is my first tab,i'm not sure if this is accurate,pero MAGANDA nman ung 
cya tlga ung lead nya....try nyo lng, bka TAMA 2...95% sure...
 ASTIG!!! ang song n 2... ang lupit!!! pra 2 s mga KABATAAN na naliligaw ng landas...."

"DON'T FORGET TO RATE THIS TAB...THANKZ!"

tunning: standard

e2 ung lead part nya....


1st]------------------------------------------------------------------------[
2nd]----/15b17-15-17----7-10/12-10-8-10/12-10-10/12-8-8/10-7-8-7-5----------[
3rd]--------------------------------------------------------------7---------[
4th]------------------------------------------------------------------------[
5th]------------------------------------------------------------------------[
6th]------------------------------------------------------------------------[

1st]--------------------------------------[
2nd]------12-10----10-8----8-7------------[
3rd]---/12------/9------/7-----9-7--7/9---[
4th]--------------------------------------[
5th]--------------------------------------[
6th]--------------------------------------[
[ Tab from: http://www.guitartabs.cc/tabs/o/orient_pearl/pagsubok_tab_ver_3.html ]
1st]----17-15-14-15-14-15-14----------------10-12-14-14/15-14-10/12---------[
2nd]-------------------------17-15-14h15b15---------------------------------[
3rd]------------------------------------------------------------------------[
4th]------------------------------------------------------------------------[
5th]------------------------------------------------------------------------[
6th]------------------------------------------------------------------------[

tpos pagkatapos n2ng lead... use power chords [distorted] ung part na 2...

       D     A     Bm    G
1st]---------------------------]
2nd]---------------------------]
3rd]---7-----------------------]
4th]---7-----7-----9-----5-----]
5th]---5-----7-----9-----5-----]
6th]---------5-----7-----3-----]

"just listen to the song nlang pra mkuha nyo ung tamang timing at flow ng song...i hope 
tab will help you a lot...thankz!!! ENJOY!!!

legend:
      /= slide
      h= hammer on
      b= bend
      1st]= first string
      2nd]= second string
      3rd]= third string
      4th]= fourth string
      5th]= fifth string
      6th]= sixth string
chords:
      intro: [D-A-Bm-G]2X
      verses: [D-A-Bm-G]4X
      chorus: [D-A-Bm-G]3X


NOTE:
    if there is any comments or suggestion to this tab...
    just e-mail me @ yap18_alvin26@yahoo.com.....thnkz!!!
Comments