Orgy - Revival Chords & Tabs

 

Revival Chords & Tabs

Orgy Chords & Tabs

Version: 1 Type: Tab 0 ratings
1 star 2 stars 3 stars 4 stars 5 stars
comments

Revival Tab

   Orgy-Revival   
 
   Chorus   
 
   |---------------------------------| R   
   |---------------------------------|   
   |---------------------------------|   
   |-5-5-5-5-7-7-7-7-9-9-9-9-2-2-2-2-|   
   |-5-5-5-5-7-7-7-7-9-9-9-9-2-2-2-2-|   
   |-3-3-3-3-5-5-5-5-7-7-7-7-0-0-0-0-|   
 
   |-15-15-14-------11-11-11-12-11-9-| L   
   |---------------------------------|   
   |---------------------------------|   
   |---------------------------------|   
   |---------------------------------|   
   |---------------------------------|   
 
   Pre-Verse   
 
   |---------------------------------| R   
   |---------------------------------|   
   |---------------------------------|   
   |---------------------------------|   
   |---5---5---7---7---9---9---2---2-|   
   |-3---3---5---5---7---7---0---0---|   
 
   Verse   
 
   |-------------| R   
   |-------------|   
   |-------------|   
   |-------------|   
   |-----------3-|   
   |-3-3-3-2-2---|   
 
   |-------------| L   
   |-------------|   
   |-------------|   
   |-5---6---4---|   
   |-------------|   
   |-------------|   
 
   Interlude   
 
   |-------------------------------------| R   
   |-------------------------------------|   
   |-------------------------------------|   
   |-------------------------------------|   
   |-5-5-5-5-5-5-5-4-2-2-2-2-9-9-9-7-7-7-|   
   |-3-3-3-3-3-3-3-2-0-0-0-0-7-7-7-5-5-5-|   
 
   |-12-13-12-13-|   
   |-------------|   
   |-------------|   
   |-------------|   
   |-------------|   
   |-------------|
[ Tab from: http://www.guitartabs.cc/tabs/o/orgy/revival_tab.html ]
Comments