Orgy - Fiction Chords & Tabs

 

Fiction Chords & Tabs

Orgy Chords & Tabs

Version: 3 Type: Tab 0 ratings
1 star 2 stars 3 stars 4 stars 5 stars
comments

Fiction Tab

   
Orgy, Fiction (Dreams in Ditital).
 Tabbed by Cavan,powerstruck15@cs.com.
  
tuning- Db-Ab-Db-Gb-Bb-Eb

Intro/Verse
Gb|-------------2---2----------|
Db|----------------------------|
Ab|----4-4----0---0---0-2-4----|
Db|----------------------------|
[ Tab from: http://www.guitartabs.cc/tabs/o/orgy/fiction_tab_ver_3.html ]
Pre-Chorus
Db|-4-|
Ab|-4-|
Db|-4-|

Chorus
Db|-2-2-2-4-4-4-0-0-0-4-4-4-2-2-2-0-0-0-|
Ab|-2-2-2-4-4-4-0-0-0-4-4-4-2-2-2-0-0-0-|
Db|-2-2-2-4-4-4-0-0-0-4-4-4-2-2-2-0-0-0-|

Solo
Eb|--2----4-----5-----7--5-4------|
Bb|-2-2-2---2-2---2-2-------------|
Gb|--------------------6--6-6-5-6-| 
:: Ultimate Guitar Archive :: 
http://www.ultimate-guitar.com 

 
Comments