Orgy - Blue Monday Chords & Tabs

 

Blue Monday Chords & Tabs

Orgy Chords & Tabs

Version: 4 Type: Tab 0 ratings
1 star 2 stars 3 stars 4 stars 5 stars
comments

Blue Monday Tab

Artist : Orgy
Album : Candyass
Song : Blue Monday

Tab transcribed by Max G. (snowblind@cgocable.ca)

I've been looking for a tab of this song for standard tuning and
none was actually accurate so I decided to make my own tab. It 
sounds very good to me, if you have any correction to bring, just
drop me a line!

You have to know Ryan Shuck's guitar is tuned in Drop A so you might
not get the exact same sound. Samething for Amir Derakh, so have fun
with my version!

0:07
G-synth intro : Play it with medium chorus and the neck pickup [x7]
E--------------------------------|
B--------------------------------|
G--------------------------------|
D--4-4-4-6-----------------------|
A----------4-4-4-6-6--6-6--6-6---|
E--------------------------------|

0:18
After 3 times, guitar 2 plays this lick [x2] Chorus, bridge pickup 
E--6-------------6----------|
B----6~~/7~~-------6~~\4~~--|
G---------------------------|
D---------------------------|
A---------------------------|
E---------------------------|

0:37 Listen to the CD for timing and picking
Heavy distortion!! [x2] bridge pickup
E----------------|
B----------------|
G--6------8------|
D--4-6-8--6-6-8--|
A----4-6----4-6--|
E----------------|

1:10
I thought I was mistaken... [x4] Chorus, neck pickup
E-------------------------------|
B-------------------------------|
G-------------------------------|
D--4-4-4-6----------------------|
A----------4-4-4-6-6--6-6--6-6--|
E-------------------------------|

1:25 Listen to the CD for timing and picking
How does it feel... [x2] Heavy distortion, bridge pickup
E----------------|
B----------------|
G--6------8------|
D--4-6-8--6-6-8--|
A----4-6----4-6--|
E----------------|

1:47
From the past until completion... [x6] Chorus, neck pickup
E-------------------------------|
B-------------------------------|
G-------------------------------|
D--4-4-4-6----------------------|
A----------4-4-4-6-6--6-6--6-6--|
E-------------------------------|

2:09 Listen to the CD for correct timing
Guitar 1 [x2] Chorus, neck pickup
E------------------------------|
B------------------------------|
G------------------------------|
D-------------------------8----|
A--9-8-6-8----6--9-8-6-8----6--|
E-----------6------------------|
[ Tab from: http://www.guitartabs.cc/tabs/o/orgy/blue_monday_tab_ver_4.html ]
Guitar2 [x2] Chorus, bridge pickup
E----------------------------18--|
B--19-18-16-18------19-18-16-----|
G---------------15---------------|
D--------------------------------|
A--------------------------------|
E--------------------------------|

2:35
But if it wasn't for your misfortunes... [x8] Chorus, neck pickup
E-------------------------------|
B-------------------------------|
G-------------------------------|
D--4-4-4-6----------------------|
A----------4-4-4-6-6--6-6--6-6--|
E-------------------------------|

3:05
Medium distortion, bridge pickup
E-----------------------------------|
B-----------------------------------|
G--8--6-----6/8--10--6--6/8-10-6-8--|
D--8--6--8--6/8--8---4--6/8--8-4-8--|
A--6--4--8--4/6---------4/6------6--|
E--------6--------------------------|

3:16
I thought I told you to leave me... [x4] Chorus, neck pickup
E-------------------------------|
B-------------------------------|
G-------------------------------|
D--4-4-4-6----------------------|
A----------4-4-4-6-6--6-6--6-6--|
E-------------------------------|

3:34
Heavy distortion!! [to fade] bridge pickup
E----------------|
B----------------|
G--6------8------|
D--4-6-8--6-6-8--|
A----4-6----4-6--|
E----------------|

3:56 Listen to the CD for timing and picking
Guitar 1 [to fade] Chorus, bridge pickup
E--6-------------6----------|
B----6~~/7~~-------6~~\4~~--|
G---------------------------|
D---------------------------|
A---------------------------|
E---------------------------|

Guitar 2 [to fade] Chorus, bridge pickup
E----------------------------18--|
B--19-18-16-18------19-18-16-----|
G---------------15---------------|
D--------------------------------|
A--------------------------------|
E--------------------------------|

Symbols explanation

~ Sustain
/ Slide up
\ Slide down


Lyrics

How does it feel
To treat me like you do?
When you've laid your hands upon me
And told me who you are
I thought I was mistaken
I thought I heard your words
Tell me how do I feel
Tell me now how do I feel
Those who came before me
Lived through their vocations
From the past until completion
They will turn away no more
And I still find it so hard
To say what I need to say
But I'm quite sure that you'll tell me
Just how I should feel today
I see a ship in the harbor
I can and shall obey
But if it wasn't for your misfortunes
I'd be a heavenly person today
And I thought I was mistaken
And I thought I heard you speak
Tell me how do I feel
Tell me now how should I feel
Now I stand here waiting
I thought I told you to leave me
While I walked down to the beach
Tell me how does it feel
When your heart grows cold
..grows cold, grows cold, grows cold...
Comments