Orgy - Blue Monday Chords & Tabs

 

Blue Monday Chords & Tabs

Orgy Chords & Tabs

Version: 12 Type: Tab 0 ratings
1 star 2 stars 3 stars 4 stars 5 stars
comments

Blue Monday Tab

Orgy, Blue Monday.
 Tabbed by Daniel C. dc_10_ec@yahoo.com.
  
Artist: Orgy
Song: Blue Monday
Album: Candyass

*Tune: EBGDAD

Intro Riff
e |----------------------------------------|
B |----------------------------------------|
G |----------------------------------------|
D |--4-4-4--6------------------------------|
A |------------4-4-4---6-6--6-6--6-6-------|  
D |----------------------------------------|

Main  Riff
e |----------------------------------------|
B |----------------------------------------|
G |----------------------------------------|
D |--4--4-4-4--6---------------------------|
A |---------------4--4-4-4---6-6--6-6--6-6-| 
D |----------------------------------------|

Riff 1 
e |----------------------------------------|
B |--11-----------11-----------------------|
G |-----11---12------11---9----------------|
D |----------------------------------------|
A |----------------------------------------|
D |----------------------------------------|

slide down the D-string of your guitar at the drums 
before the first chorus

Chorus Riff 
e |----------------------------------------|
B |----------------------------------------|
G |----------------------------------------|
D |---5---0---2-----7---0---2--------------|    
A |---5---0---2-----7---0---2--------------|
D |---5---0---2-----7---0---2--------------|

Solo 1
e |------------------------------------19--|
B |--20--19--17--19--------20--19--17------|
G |-------------------16-------------------|
D |----------------------------------------|
A |----------------------------------------|
D |----------------------------------------|
[ Tab from: http://www.guitartabs.cc/tabs/o/orgy/blue_monday_tab_ver_12.html ]
Solo 2
e |----------------------------------------|
B |----------------------------------------|
G |----------------------------------------|
D |--------------------8----------8--------|
A |--6---4-------4-6-----9---4-6---9---6---|
D |----------8-----------------------------|


Order

Drums
Intro Riff
Main Riff 6x - Insert Riff 1 on 3rd time
Drums
Chorus Riff 2x
Drums
Main Riff 8x
Chorus 2x
Main Riff 8x
Riff 2 2x
Drums
Main Riff 10x
Riff 3 2x (do main riff in he background)
Main Riff 4x
Drums
Chorus Riff - a couple of times to fade

That's all, it's very easy but if you want more, tell me: dc_10_ec@yahoo.com

Lyrics:

How does it feel 
To treat me like you do? 
When you've laid your hands upon me 
And told me who you are 
I thought I was mistaken 
I thought I heard your words 
Tell me how do I feel 
Tell me now how do I feel 
How does it feel
How should I feel
Tell me how does it feel
To treat me like you do? 
Those who came before me 
Lived through their vocations 
From the past until completion 
They will turn away no more 
And I still find it so hard 
To say what I need to say 
But I'm quite sure that you'll tell me 
Just how I should feel today 
I see a ship in the harbor 
I can and shall obey 
But if it wasn't for your misfortunes 
I'd be a heavenly person today 
And I thought I was mistaken 
And I thought I heard you speak 
Tell me how do I feel 
Tell me now how should I feel 
Now I stand here waiting 
I thought I told you to leave me 
While I walked down to the beach 
Tell me how does it feel 
When your heart grows cold 
..grows cold, grows cold, grows cold...
How does it feel
How should I feel
Tell me how does it feel
To treat me like you do?  
 
:: Ultimate Guitar Archive :: 
http://www.ultimate-guitar.com 



Comments