Orgy - Blue Monday Chords & Tabs

 

Orgy Chords & Tabs

Version: 5 Type: Bass Tab 0 ratings
1 star 2 stars 3 stars 4 stars 5 stars
comments

Blue Monday Bass Tab

Bass Tablature

Band: Orgy
Song: Blue Monday
Track: 07
Album: Candyass
Tabbed By: Tyler Nance (killpeople@netzero.net)
This song was re-tabbed on 12/28/2000.

Tuning: Standard Five String (BEADG) or ( Db Gb B Fb)
Note: This song can be play on a four string bass with tuning like this (Db Gb B Fb), it won't be correct, but it sounds good.

Intro/Verse Riff - Play Several Times (Clean/no effect)
First half
G|-------------------------------------------
D|-------------------------------------------
A|-------------------------------------------
E|----------------2----2----4----4----2----2-
B|---7-7--5-5--2-2--2-2--4-4--4-4--2-2--2-2--

Second half
G|-------------------------------------------
D|-------------------------------------------
A|-------------------------------------------
E|----------------2----2----7----7----2----2-
B|---7-7--5-5--2-2--2-2--7-7--7-7--2-2--2-2--

Chorus - Play Several Times (Use Distortion Or Simular Effect)
G|------------------------------------------
D|------------------------------------------
A|------------------------------------------
E|--2-2-2-2-------------------------4-4-4-4-
B|----------2-2-2-2-4-4-4-4-4-4-4-4---------
[ Tab from: http://www.guitartabs.cc/tabs/o/orgy/blue_monday_btab_ver_5.html ]
The following are riffs that bassist the isn't suppose to play, but thier very fun to play.

Guitar Intro Riff, play two octaves above the following notes
(Distortion)
G|------------------------------------
D|------------------------------------
A|------------------------------------
E|--2222-4----------------------------
B|---------2222-444-4-4-4-4--4--------

Keyboard Interlude Play Twice
(Clean)
G|------------------------------------
D|------------------------------------
A|-9--8--6--8--8--------9--8--6--8--8-
E|----------------6--6----------------
B|------------------------------------

Guitar Interlude After Jay Says, "Now I stand here waiting".
(Distortion)
G|-----------------------------------------
D|--------------------8-4~---------8-4--1~- 
A|-6~---4---1~---4-6---------4-6-----------
E|-----------------------------------------
B|-----------------------------------------

Parts of the song:

Intro
Chorus
Verse
Chorus
Verse
Keyboard Interlude (Play Verse Riff Or Keyboard Interlude Riff)
Verse
Guitar Interlude (Play Verse Riff Or Guitar Interlude Riff, after interlude start bass line over)
Chorus

I am 100% sure this tab is correct, I've been working on it for awhile,
make sure you check out my bass tab archive at www.rd5k.com, I update the tabs more often there, so have fun.
Comments