Orgy - Beautiful Disgrace Chords & Tabs

 

Beautiful Disgrace Chords & Tabs

Orgy Chords & Tabs

Version: 1 Type: Tab 0 ratings
1 star 2 stars 3 stars 4 stars 5 stars
comments

Beautiful Disgrace Tab

   
Band: Orgy
Song: Beautiful Disgrace
Album: Punk Statik Paranoia
Tuning: Drop Db

Intro/Pre-Interlude:
Eb|--------------------------------------|
Bb|--------------------------------------|
Gb|-6~~~~~----6~~~~~----6~~~~~----6~~~~~-| (x2 during 
Db|--------------------------------------|     pre-interlude)
Ab|--------------------------------------|
Db|--------------------------------------|

Verse
Eb|-----------------|
Bb|-----------------|
Gb|-----------------|  (x24 1st verse) (x16 2nd verse)
Db|-1-1-0-0-1--1--0-|
Ab|-1-1-0-0-1--1--0-|
Db|-1-1-0-0-1--1--0-|

Chorus
Eb|-------------------------------------------|
Bb|-------------------------------------------|
Gb|-3-3-3-----------3-6---3-3-3-----------3-4-| (x2 1st chorus) 
Db|-3-3-3-2-2-1-2-1-3-6---3-3-3-2-2-1-2-1-3-4-|   (x4 2nd chorus)
Ab|-1-1-1-2-2-1-2-1-1-4---1-1-1-2-2-1-2-1-1-2-|  (x6 3rd chorus)
Db|-------2-2-1-2-1-------------2-2-1-2-1-----|
[ Tab from: http://www.guitartabs.cc/tabs/o/orgy/beautiful_disgrace_tab.html ]
Post-Chorus/Post-Interlude/Outro  (note: outro is a little slower)
Eb|-------------------------------------------------|
Bb|-------------------------------------------------|
Gb|-3~~~~-6~~~~-3~~~~-6~~~~-3~~~~-6~~~~-3~~~~-6~~~~-|
Db|-3~~~~-6~~~~-3~~~~-6~~~~-3~~~~-6~~~~-3~~~~-6~~~~-|
Ab|-1~~~~-4~~~~-1~~~~-6~~~~-1~~~~-4~~~~-1~~~~-4~~~~-|
Db|-------------------------------------------------|

Interlude  x4  (note: youre gunna be strumming the chords)
Eb|---------------------------------------------------------------|
Bb|---------------------------------------------------------------|
Gb|-6-6-6-6-6-6-6-6-5-5-5-5-5-5-5-5-5-5-5-5-5-5-5-----------------|
Db|-6-6-6-6-6-6-6-6-5-5-5-5-5-5-5-5-5-5-5-5-5-5-5-1-1-1-1-1-1-1-1-|
Ab|-4-4-4-4-4-4-4-4-3-3-3-3-3-3-3-3-3-3-3-3-3-3-3-1-1-1-1-1-1-1-1-|
Db|-----------------------------------------------1-1-1-1-1-1-1-1-|

Intro
Verse (x24)
Chorus (x2)
Post-Chorus
Verse (x16)
Chorus (x4)
Pre-Interlude (x2)
Interlude (x4)
Post-Interlude
Chorus (x6)
Outro
Comments