Orgy - Ashamed Chords & Tabs

 

Ashamed Chords & Tabs

Orgy Chords & Tabs

Version: 1 Type: Tab 0 ratings
1 star 2 stars 3 stars 4 stars 5 stars
comments

Ashamed Tab

Band: Orgy
Song: Ashamed
Album: Punk Statik Paranoia
Tuning: Drop Ab

Intro pt 1 (lead) (w/ digi delay)
Bb|---------------------------------|
Gb|---------------------------------|
Db|---------------------------------|
Ab|-4-----4-----4-----4-----4-----4-|
Eb|-4-----4-----4-----4-----4-----4-|
Ab|-4-----4-----4-----4-----4-----4-|

Intro pt 1 (rhythem) (w/phaser)
Bb|-17-----------17---|
Gb|-------------------|
Db|-------------------|
Ab|-------------------|
Eb|-------------------|
Ab|-------------------|

Intro pt 2/post chorus/post interlude/outro (both)
Bb|------------|
Gb|------------|
Db|------------|  x4 durin intro pt2, post chorus, post interlude
Ab|-4--4--4--4-|         x8 outro
Eb|-4--4--4--4-|
Ab|-4--4--4--4-|

Verse (lead)  x2 1st verse, x3 2nd verse
Bb|----------------------------------------------------------|
Gb|----------------------------------------------------------|
Db|----------------------------------------------------------|
Ab|----------------------------------------------------------|
Eb|----------------------------------------------------------|
Ab|-4-4--4-4-4--4-4-4--4-7-7-7-7-3-3--3-3-3--3-3-3--3-3-3--3-|

Bb|-----------------------------------------------------------|
Gb|-----------------------------------------------------------|
Db|-----------------------------------------------------------|
Ab|-----------------------------------------------------------|
Eb|-3-3--3-3-3--3-3-3--3-3-3-3-3-2-2--2-2-2--2-2-2--2---------|
Ab|---------------------------------------------------2-2-2-2-|
[ Tab from: http://www.guitartabs.cc/tabs/o/orgy/ashamed_tab.html ]
Verse (rhythem) (w/phaser)
Bb|-14----12------12----14------14----12------17-|-14----12------12----14-|
Gb|----------------------------------------------|------------------------|
Db|-----------9----------------------------9-----|-----------9------------|
Ab|----------------------------------------------|------------------------|
Eb|----------------------------------------------|------------------------|
Ab|----------------------------------------------|------------------------|
           ^x2 1st verse ^x1 2nd verse                  ^x1

Riff before 1st chorus (rhythem)
Bb|------------------|
Gb|------------------|
Db|------------------|
Ab|------------------|
Eb|------------------|  
Ab|-3-4-4---3-4-4--4-|

Chorus (both)
Bb|--------------------------|
Gb|--------------------------|
Db|--------------5----4------|     x2 1st and 2nd chorus , x4 last chorus
Ab|-4---7--3-----5----4----2-|
Eb|-4---7--3-----3----2----2-|
Ab|-4---7--3---------------2-|

Riff before 2nd chorus (both)
Bb|-----------------------------------------------------------|
Gb|-----------------------------------------------------------|
Db|-5-5--5-5-5--5-5-5--5-5-5-5-5-4-4--4-4-4--4-4-4--4---------|
Ab|-5-5--5-5-5--5-5-5--5-5-5-5-5-4-4--4-4-4--4-4-4--4-2-2-2-2-|
Eb|-3-3--3-3-3--3-3-3--3-3-3-3-3-2-2--2-2-2--2-2-2--2-2-2-2-2-|
Ab|---------------------------------------------------2-2-2-2-|

Interlude (lead) (w/ phaser)
Bb|----------------------------|
Gb|----------------------------|
Db|-7-6-6--5-5-5--2-2-2--------|  x6
Ab|-7-6-6--5-5-5--2-2-2--6-6-6-|
Eb|-5-4-4--3-3-3--0-0-0--6-6-6-|
Ab|----------------------6-6-6-|

Interlude (rhythem)
Bb|----|
Gb|----|
Db|----|   you just hit it occasionally while the lead is playing 
Ab|-4--|
Eb|-4--|
Ab|-4--|

intro pt 1
intro pt 2  x4
verse
riff before 1st verse (optional)
chorus x2
verse
riff before 2nd chorus
chorus x2
post chorus x4
interlude (x6 lead) (occasionally for rhythem)
post interlude x4
chorus x4
outro x8
Comments