Ordinary Boys - Boys Will Be Boys Chords & Tabs

 

Boys Will Be Boys Chords & Tabs

Ordinary Boys Chords & Tabs

Version: 1 Type: Bass Tab

Boys Will Be Boys Bass Tab

Song: Boys will be Boys
Artist: The Ordinary Boys
Tabber: Stufin135 (Hellbassist1)
Email: tozz_off@hotmail.com

Play in this order as follows

Intro
G|-------------------------------||
D|-------------------------------||
A|------3--2--------7----7--7-7--||
E|------------3--2---------------||

Verse 1
G|------------------------------------------------------------2-1------------------------||
D|--2----2--2-2---2-1-0---2----2--2-2---2-1-0---2----2--2-2-------0---2---2--2-2----2-2--||
A|----------------------4---------------------4---------------------4--------------------||
E|---------------------------------------------------------------------------------------||

Chorus
G|------------------------------||
D|------------------------------||
A|--3-3-3-3-3-3-3-3-3--2--------||
E|------------------------3--2--||

Post Chorus
G|---------------------||
D|---------------------||
A|--7----7--7-7----7-7-||
E|---------------------||

Verse 2
G|---------------------------------------2-2------------------------------------------||
D|--2----2--2-2---2-1-0---2----2--2-2---2-2--2----2--2-2---2-1-0---2----2--2-2---2-2--||
A|----------------------4----------------------------------------4--------------------||
E|------------------------------------------------------------------------------------||

Chorus
G|------------------------------||
D|------------------------------||
A|--3-3-3-3-3-3-3-3-3--2--------||
E|------------------------3--2--||

Post Chorus
G|---------------------||
D|---------------------||
A|--7----7--7-7----7-7-||
E|---------------------||
[ Tab from: http://www.guitartabs.cc/tabs/o/ordinary_boys/boys_will_be_boys_btab.html ]
Bridge
G|-------------------------------------------------------------------------------||
D|--2----1----0---------2----1----0----------------------------------------------||
A|-----------------4-------------------3--2--------------------------------------||
E|-------------------------------------------3--2--0----0--0-0----0----0--0-0----||

Verse 3
G|---------------------------------------2-2---------------2-1-----------------------||
D|--2----2--2-2---2-1-0---2----2--2-2---2-2--2----2--2-2-------0----2----2--2-2--2-2-||
A|----------------------4-----------------------------------------4------------------||
E|-----------------------------------------------------------------------------------||

Chorus
G|------------------------------||
D|------------------------------||
A|--3-3-3-3-3-3-3-3-3--2--------||
E|------------------------3--2--||

Post Chorus
G|---------------------||
D|---------------------||
A|--7----7--7-7----7-7-||
E|---------------------||

Verse 4
G|---------------------------------------2-2---------------2-1-----------------------||
D|--2----2--2-2---2-1-0---2----2--2-2---2-2--2----2--2-2-------0----2----2--2-2--2-2-||
A|----------------------4-----------------------------------------4------------------||
E|-----------------------------------------------------------------------------------||

Chorus
G|------------------------------||
D|------------------------------||
A|--3-3-3-3-3-3-3-3-3--2--------||
E|------------------------3--2--||

Post Chorus
G|---------------------||
D|---------------------||
A|---------------------||
E|--7----7--7-7----7-7-||

Outro
G|-----------------------------------------------------------------------------------------||
D|--5--------2----1----0---------2----1----0-----------------------------------------------||
A|--------------------------4-------------------3--2--------3--2--------3--2--------7----7-||
E|----------------------------------------------------3--2--------3--2--------3--2---------||

G|---------||
D|---------||
A|---------||
E|--0-0----||