Orbit - Over Chords & Tabs

 

Over Chords & Tabs

Orbit Chords & Tabs

Version: 1 Type: Bass Tab 0 ratings
1 star 2 stars 3 stars 4 stars 5 stars
comments

Over Bass Tab

   
--------------------------------------------------------------------
		                 	        Over - Orbit
--------------------------------------------------------------------

Tabbed By : SephirothRaiku
e-mail: Project_Xeno@hotmail.com

Tuning: Standard (EADG)
 

(0:05)(VERSE) x4
G|-----------------------------------|
D|-----------------------------------|
A|-2------2------2------2------------| 
E|---2-3-0--2-3-0--2-3-0--3-2-0------| 

(0:36)(CHORUS 1)
G|-----------------------------------------|
D|-----------------------------------------|
A|-----------------------------------------| 
E|-0000000033333333222-0000000033333333555-| 

(0:42) VERSE (x4)

(1:04)(CHORUS 2) x2

(1:19) VERSE (x2)
[ Tab from: http://www.guitartabs.cc/tabs/o/orbit/over_btab.html ]
(1:34) INTERLUDE x1
G|-----------------------------------------|
D|-----------------------------------------|
A|-2r---0r-------------2r---4r-------------| 
E|-----------0r---3r------------0r---3r----|

(1:48) VERSE (x4)
 
(2:18) CHORUS (x4)

(2:47) (OUTRO) x2
G|--------------------------------------------|
D|--------------------------------------------|
A|-2----------2----------2----------2---------|
E|----0h230------0h230------0h230------0h320--|

===================================================================
Optionally you can slide from the (2) to the (3) in the Verse and Outro
to make it easier to play. Enjoy! If you have any corrections or comments
Email or PM them to me. Thanks! Orbit is a great band you can hear their
music at www.orbitband.com


Comments