Orbison Roy - Blue Bayou Chords & Tabs

 

Blue Bayou Chords & Tabs

Orbison Roy Chords & Tabs

Version: 1 Type: Tab 0 ratings
1 star 2 stars 3 stars 4 stars 5 stars
comments

Blue Bayou Tab

   
#----------------------------------PLEASE NOTE--------------------------------#
#This file is the author's own work and represents their interpretation of the#
#song. You may only use this file for private study, scholarship, or research.#
#-----------------------------------------------------------------------------#
                              "Blue Bayou"
                       (Roy Orbison - Joe Melson)

Intro:

(acoustic bass w/high-hat [2X])

 v   v   v   v     v   v   v   v
-----------------|-----------------
-3---------------|-3---------------
-------3-3-----3-|-------3-3-----3-
-----------------|-----------------

Verse 1 (chords implied):
[ Tab from: http://www.guitartabs.cc/tabs/o/orbison_roy/blue_bayou_tab.html ]
(F)
 v   v   v   v     v   v   v   v
-----------------|-----------------
-3---------------|-3---------------
-------3-3-----3-|-------3-3-----3-
-----------------|-----------------


                (C7/G)
 v   v   v   v     v   v   v   v
-----------------|-----------------
-3---------------|-5---------------
-------3-3-----3-|-------3-3-----3-
-----------------|-----------------


 v   v   v   v     v   v   v   v
-----------------|-----------------
-5---------------|-5---------------
-------3-3-----3-|-------3-3-----3-
-----------------|-----------------
 

(F)
 v   v   v   v     v   v   v   v
-----------------|-----------------
-3---------------|-1---1-3---------
-------3-3-----3-|---3---x---------
-----------------|-----------------




-- another ace 60's tab from Andrew Rogers
Comments