Orange Goblin - You Know Your World Will Hate This Chords & Tabs

 

You Know Your World Will Hate This Chords & Tabs

Orange Goblin Chords & Tabs

Version: 1 Type: Tab 0 ratings
1 star 2 stars 3 stars 4 stars 5 stars
comments

You Know Your World Will Hate This Tab

   

You know your world will hate this
Orange Goblin

FUCK!!!!

e----------------------------------------
b----------------------------------------
g----------------------------------------
d----------------------------------------
a----------------------------------------
D-0-0-3-0-3-0-0-3-0-3-0-0-3-0-3-0-0-3-0-3
[ Tab from: http://www.guitartabs.cc/tabs/o/orange_goblin/you_know_your_world_will_hate_this_tab.html ]
We Know that ure world will hate this...

e---------------------------------------------
b---------------------------------------------
g---------------------------------------------
d--3/666-5-3-3---------------------3/666-3-3-3
a--3/666-5-3-3---------------------3/666-5-3-3
D--3/666-5-3-3-0-0-3-0-3-0-0-3-0-3-3/666-5-3-3

Gumi BEar
HEH!!!
Comments