Orange Goblin - Jesus Beater Chords & Tabs

 

Jesus Beater Chords & Tabs

Orange Goblin Chords & Tabs

Version: 1 Type: Tab 0 ratings
1 star 2 stars 3 stars 4 stars 5 stars
comments

Jesus Beater Tab

   
Orange Goblin
Jessus beater

intro/verse

e------------------------------
b------------------------------
g------------------------------         Repeated alot
d-3-5-3----3-5-3-8----3-5-3-8-2
a-3-5-3----3-5-3-8----3-5-3-8-2
d-3-5-3----3-5-3-8----3-5-3-8-2

Chourus
[ Tab from: http://www.guitartabs.cc/tabs/o/orange_goblin/jesus_beater_tab.html ]
e-----------
b-----------
g-----------
d-3-5-3-8-22
a-3-5-3-8-22
d-3-5-3-8-22

Bridge

e
b
g
d-0-0-0-0
a-0-0-0-0
d-0-0-0-0

thats it really a fuckin wicked song and stuff so u know go and
learn! oh yeah all the other songs are like, really easy to learn
in drop d and can be worked out by ear.
Comments