Orange And Lemons - Pinoy Ako Chords & Tabs

 

Pinoy Ako Chords & Tabs

Orange And Lemons Chords & Tabs

Version: 4 Type: Tab 0 ratings
1 star 2 stars 3 stars 4 stars 5 stars
comments

Pinoy Ako Tab

   
Pagpasensyahan nyo na to, 1st tym ko mag tab hehehe...

(tandard Tuning)

Guitar intro....

-|-------10-------------10------------10------------10----------|
-|-----10----10-------10---10------10----10-------10---10-------|
-|---12------------12-----------12-------------12---------------|
-|--------------------------------------------------------------|
-|--------------------------------------------------------------|
-|--------------------------------------------------------------|


-|-------10-------------10------------10------------10----------|
-|-----10----10-------10---10------10----10-------10---10-------|
-|---11------------11-----------11-------------11---------------|
-|--------------------------------------------------------------|
-|--------------------------------------------------------------|
-|--------------------------------------------------------------|


-|-------10-------------10------------10------------10----------|
-|-----10----10-------10---10------10----10-------10---10-------|
-|---12------------12-----------12-------------12---------------|
-|--------------------------------------------------------------|
-|--------------------------------------------------------------|
-|--------------------------------------------------------------|


-|-------10-------------10------------10------------10----------|
-|-----10----10-------10---10------10----10-------10---10-------|
-|---11------------11-----------11-------------11---------------|
-|--------------------------------------------------------------|
-|--------------------------------------------------------------|
-|--------------------------------------------------------------|

Guitar/Bass

-|--------------------------------------------------------------|
-|--------------------------------------------------------------|
-|--------------------------------------------------------------|
-|-------5-4----5-4---------------------------------------------|
-|---5/7------5------5------------------------------------------|
-|----------------------5-tap-5-5-tap-0-5-tap-5-5-tap-----------|


-|--------------------------------------------------------------|
-|--------------------------------------------------------------|
-|--------------------------------------------------------------|
-|--------------------------------------------------------------|
-|--5-tap-5-5-tap-0-5-5-5-tap-----------------------------------|
-|-----------------------------5-tap-5-5-tap-0-5-tap-5-5-tap----|

[ Tab from: http://www.guitartabs.cc/tabs/o/orange_and_lemons/pinoy_ako_tab_ver_4.html ]
-|--------------------------------------------------------------|
-|--------------------------------------------------------------|
-|--------------------------------------------------------------|
-|--------------------------------------------------------------|
-|--5-tap-5-5-tap-0-5-------------------------------------------|
-|--------------------------------------------------------------|


   Bm7   Gm   D              F#m                 Bm7
                 Lahat tayo'y     mayroon  pagkakaiba
-|--2----3----5--------------2----------------------------------|
-|--3----3----7--------------2----------------------------------|
-|--2----3----7--------------2----------------------------------|
-|--4----5----7--------------4----------------------------------|
-|------------5--------------4----------------------------------|
-|--------------------------------------------------------------|

            Gm             D
      madalang ay makikita na....  ( ...so on ikot lang sa D,F#m,Bm7,Gm)
-|----------3---------------5-----------------------------------|
-|----------3---------------7-----------------------------------|
-|----------3---------------7-----------------------------------|
-|----------5---------------7-----------------------------------|
-|----------5---------------5-----------------------------------|
-|----------3---------------5-----------------------------------|

(Riff..)

-|---11h12---9-----------------------------13----------------|
-|--------------11---10---11----10----11---------------------|
-|-----------------------------------------------------------|
-|-----------------------------------------------------------|
-|-----------------------------------------------------------|
-|-----------------------------------------------------------|


-|--15--15----17--18--17----15----14-------------------------|
-|--14-------------------------------------------------------|
-|-----------------------------------------------------------|
-|-----------------------------------------------------------|
-|-----------------------------------------------------------|
-|-----------------------------------------------------------|


Lyrics--

Intro: D-F#m-Bm7-Gm


VerseI:D-F#m-Bm7-Gm

 D         F#m            Bm7        Gm            D
Lahat tayo'y mayroon pagkakaiba madalang makikita na
  F#m           Bm7             Gm          D
                                             (Riff..)
Iba't ibang kagustuhan ngunit isang patutunguhan

Chorus: D-F#m-Bm7-Gm
VerseII: D-F#m-Bm7-Gm
Repeat Chorus
VerseIII:Am
Repeat Chorus
Comments