Orange And Lemons - Pinoy Ako Chords & Tabs

 

Pinoy Ako Chords & Tabs

Orange And Lemons Chords & Tabs

Version: 3 Type: Tab 0 ratings
1 star 2 stars 3 stars 4 stars 5 stars
comments

Pinoy Ako Tab

   
elo po..intro muna pra masaya..tpos chka ko na kakapain ung iba kse nagmamdale ako
eh..pra lng mtulungan ko kyo na mka tugtog ng maayos kya nilagyan ko ng konting plucking
ung una...gtg!! check nio n lng ung tono ng gitara nio ewn ko kung nsa tono ung aken

pinoy ako (pinoy big brother theme)

By: orange and lemons po

Tabbed by: andrew mate 5 yrs old (Claretian)first time lng mgsubmit psensha n po

E-mail/ frendster : andrewmate007@yahoo.com 

intro:
E|-------10---------|-------10--------|-------------------------------|
B|--8-10----10------|--7-10----10-----|-------------------------------|
G|------------------|-----------------|-------------------------------|
D|------------------|-----------------|-------------------------------|
A|------------(x4)--|------------(x4)-|-------------------------------|
E|------------------|-----------------|-------------------------------|

e2 po ung sa bass (note: sa acoustic guitar ko po gnwa kaya mejo mag adjust n lng kyo
sa bass kung may prob..=)
[ Tab from: http://www.guitartabs.cc/tabs/o/orange_and_lemons/pinoy_ako_tab_ver_3.html ]
bass
E|--------------------------------------------------------------------|
B|--------------------------------------------------------------------|
G|--------------------------------------------------------------------|
D|---4s5-5-4-0-5-4-0--------------------------------------------------|
A|-------------------0------------------------------------------------|
E|--------------------------------------------------------------------|
apir!!

oh e2 pa!! (e2 ung epal sa intro)

E|----15---14h15h14---------------------------------------------------|
B|--------------------------------------------------------------------|
G|--------------------------------------------------------------------|
D|--------------------------------------------------------------------|
A|--------------------------------------------------------------------|
E|--------------------------------------------------------------------|

tpos e2 na ung prang (toing toink toinnng)

E|--------0h2---------------------------------------------------------|
B|--3--5--3-----------------------------------------------------------|
G|--2--2--2-----------------------------------------------------------|
D|--------------------------------------------------------------------|
A|--------------------------------------------------------------------|
E|--------------------------------------------------------------------|

lhat tyo'y mayroong pgkakaiba...

verses / chorus : D, A, Em, G
Comments