Orange 9mm - Gun To Your Head Chords & Tabs

 

Gun To Your Head Chords & Tabs

Orange 9mm Chords & Tabs

Version: 1 Type: Bass Tab 0 ratings
1 star 2 stars 3 stars 4 stars 5 stars
comments

Gun To Your Head Bass Tab

Song:Gun To Your Head
Band:Orange 9mm
Tabbed by: Kevin (espy333@aol.com)
***********************************

Verse/Pre-Chorus
G------------------------
D------------------------
A-3/5-5-5-5-3-0----------
E---------------1-1-1-1/3
[ Tab from: http://www.guitartabs.cc/tabs/o/orange_9mm/gun_to_your_head_btab.html ]
Chorus
G--------------------------------
D--------------------------------
A-3-3-3-3-3-3-3-3----------------
E-----------------2-2-2-2-2-2-2-2


Thats it, i'm pretty sure its correct but i'm almost positive the 
chorus is a little if not way off

Comments