Opressor - Seasons Chords & Tabs

 

Seasons Chords & Tabs

Opressor Chords & Tabs

Version: 1 Type: Tab 0 ratings
1 star 2 stars 3 stars 4 stars 5 stars
comments

Seasons Tab

   
                      Oppressor - Seasons
                     From the Album - Solstice of Oppression
              Copyright 1994 - Red Light Records
                     Version 1.0 - October- 2001
Transcribed by: Mike B. 

For Questions, Comments, Newest Version, or Corrections contact
Steve S.: at Setherial99@AOL.com

..  - palm mute          /  - slide up to
 \  - slide down to      ~  - vibrato
 h  - hammer on          b  - bend
 p  - pull off            Suffixes for bend
                          ph - pinch harmonic
                           f - full bend    h - half bend
*  - see comment           r - release      t - tap bend
X  - percussion mute       ~ - vibrato bend
@  - slight palm mute     () - ghost note, sustained note

C# tuning

Seasons

Riff A
|--------------------------------------------------------------------|
|--------------------------------------------------------------------|
|--13--12------------------------------------------------------------|
|--13--12--------------x2--------------------------------------------| 
|--11--10------------------------------------------------------------|
|--11--10------------------------------------------------------------|

Riff B
|----------------------------|----------|----------------------------|
|----------------------------|----------|----------------------------|
|----------------------------|--13--12--|----------------------------|
|----5-6-----------p.h.4~-x2-|--13--12--|----5-6-----------p.h.4~-x3-| 
|----5-6-----4-3-0-----------|--11--10--|----5-6-----4-3-0-----------|
|-0--3-4--0------------------|--11--10--|-0--3-4--0------------------|
| .  . .  .  . . .                        .  . .  .  . . .           |
|----------------|------------------------------|--------------------|
|----------------|------------------------------|--------------------|
|----------------|------------------------------|-------13--12-------|
|--6-6-6--4------|-----5-6-----------p.h.4~-x2--|-------13--12-------|
|--6-6-6---------|-----5-6-----4-3-0------------|-------11--10-------|
|--4-4-4-----7~--|--0--3-4--0-------------------|-------11--10-------|
|  . . .            .  . .  .  . . .                                 |
|------------------------------|-------------------------------------|
|------------------------------|-------------------------------------|
|------------------------------|-------------------------------------|
|-----5-6-----------p.h.4~-x3--|----6-6-6--4-------------------------|
|-----5-6-----4-3-0------------|----6-6-6----------------------------|
|--0--3-4--0-------------------|----4-4-4-----7~---------------------|
   .  . .  .  . . .                 . . . 

Riff C
|-------------------------|------------------------------------------|
|-------------------------|------------------------------------------|
|-------------------------|------------------------------------------|
|------------------6---8--|----------------8--10\--------------------|
|--4------3------4---6----|--4------3------6---8\--------------------|
|----5-4----5-4-----------|----5-4----5-4--6-------------------------|
|                                                                    |
|-------------------------|------------------------------------------|
|-------------------------|------------------------------------------|
|-------------------------|------------------------------------------|
|------------------6---8--|------------------------------------------|
|--4------3------4---6----|-4------3------4h5h7-5h7h9-7h9h10---------|
|----5-4----5-4-----------|---5-4----5-4---------------------p.h.10~-|
[ Tab from: http://www.guitartabs.cc/tabs/o/opressor/seasons_tab.html ]
Riff D
|-------------|------------|-----------------------------------------|
|-------------|------------|-----------------------------------------|
|-6--5--------|-6--5-------|--6--5-----------------------------------|
|-6--5--6-----|-6--5--6--7-|--6--5--6--------------------------------|
|-4--3--6-----|-4--3--6--7-|--4--3--6-----4h5h7-5h7h8-7h9h10---------|
|-------4--5~-|-------4--5-|--------4--5~--------------------p.h.10~-|
|                                   .  .                             |
|-----3--|--(3)--|---------------------------------------------------|
|-----3--|--(3)--|---------------------------------------------------|
|--6--5--|--(5)--|--6--5---------------------------------------------|
|--6--5--|--(5)--|--6--5--4--7---------------------------------------|
|--4--3--|--(3)--|--4--3--4--7---------------------------------------|
|--------|-------|--------6--5---------------------------------------|
                             .
Riff E (clean)
|-----0--0------0------0--|--------0----------0----------------------|
|--9--8-------------------|--9--8-----------4---4--------------------|
|--6--5-------2------2----|--6--5---------5-------5------------------|
|--6--5-----1------2------|--6--5-------4----------------------------|
|-------------------------|-----------3------------------------------|
|-------------------------|------------------------------------------|
                                                                    
Riff F
|--------------|--------------|--------------|-----------------------|
|--------------|--------------|--------------|-----------------------|
|--6--5--------|--6--5--5--5--|--6--5--------|--6--5--5--5-----------|
|--6--5--7--7--|--6--5--5--5--|--6--5--7--7--|--6--5--5--5-----------|
|--4--3--6--7--|--4--3--3--3--|--4--3--6--7--|--4--3--3--3-----------|
|--------------|--------3--3--|--------------|--------3--3-----------|

Riff G
|-----------------------------|------------------------5h8p5---4h7p4-|
|-----------------------------|----------------------6-------6-------|
|-----------------------------|--------------------------------------|
|-2-------4--5---------3------|-----------------5--6-----------------|
|-2-------2--3--2h3p2--3--2-3-|-2-3---2-p.h.1~--5--6-----------------|
|-0--0-0--2--3---------1------|-----3-----------3--4-----------------|
|                       .                                            |
|--1----------------|----------------|--1----------------------------|
|--1----------------|--------p.h.3~--|--1----------------------------|
|--3----------------|----------------|--3--------------7---6---------|
|--3--3/5--3--2--3--|--2-3-5---------|--3--3--5------8---8-----------|
|--1--3/5--3--2--3--|----------------|--1--3--5----8-----------------|
|-----1/3--1--0--1--|----------------|-----1--3--6-------------------|
|                                                                    |
|--------------------------------------------------------------------|
|----------8h10h11p10p8----------------------------------------------|
|--7h9h10----------------10p9p7--------------------------------------|
|--------------------------------------------------------------------|
|--------------------------------------------------------------------|
|--------------------------------------------------------------------|
 
Riff H                                                                   
|--------------------------|-----------------------------------------|
|--------------------------|---------------------8h10h11p10h8--------|
|-------7---6--------------|-------7------7h9h10--------------10p9p8-|
|-----8---8--------0-6-----|-----8---8-6-----------------------------|
|---8------------8-----6---|---8-------------------------------------|
|-6------------6---------4-|-6---------------------------------------|
|Then Repeat...                                                      |
|--------------------------------------------------------------------|
|--------------------------------------------------------------------|
|--------7---6-------------------------------------------------------|
|------8---8---------------------------------------------------------|
|----8---------------------------------------------------------------|
|--6-----------------------------------------------------------------|
Comments